Аккорды «Skillet»

Skillet
Skillet (ˈskilət) — христианская рок-группа из города Мемфис, штат Теннесси, основанная в 1996 году. На текущий момент группой выпущено 13 альбомов. Состав группы: Джон Купер (бас-гитара, вокал) и его жена Кори Купер (клавишные, ритм-гитара, бэк-вокал), а также Джен Леджер (ударные, бэк-вокал), Сет Моррисон (соло-гитара). За 17 лет состав группы неоднократно менялся. Джон Купер — единственный участник группы первоначального состава. На концерты и записи часто приглашаются сессионные музыканты. Альбом… Читать полностью... Skillet (ˈskilət) — христианская рок-группа из города Мемфис, штат Теннесси, основанная в 1996 году. На текущий момент группой выпущено 13 альбомов. Состав группы: Джон Купер (бас-гитара, вокал) и его жена Кори Купер (клавишные, ритм-гитара, бэк-вокал), а также Джен Леджер (ударные, бэк-вокал), Сет Моррисон (соло-гитара). За 17 лет состав группы неоднократно менялся. Джон Купер — единственный участник группы первоначального состава. На концерты и записи часто приглашаются сессионные музыканты. Альбом Collide в 2005 году был номинирован на премию Грэмми в номинации «Лучший рок госпел альбом»[7], а в 2007 Comatose был номинирован на премию Грэмми за «Лучший рок или рэп госпел альбом». История группы Формирование и первые альбомы (1996—1999 годы) Основатели группы Skillet: бас-гитарист и вокалист Джон Купер и гитарист Кен Стюартс. Изначально они играли в двух разных христианских группах: Seraph и Urgent Cry. В 1996 году, по совету своего пастора, они вместе выступили на разогреве у группы Fold Zandura (англ.)русск. и записали несколько совместных демозаписей[9]. Позже, в качестве барабанщика, к Джону и Кену присоединился Трей Макларкин. Примерно через месяц после того, как ребята стали играть вместе, ими заинтересовался лейбл ForeFront Records (англ.)русск., и предложил им заключить контракт. Кен и Джон согласились на это предложение, так как давно хотели играть вместе[10]. Название Skillet (рус. Сковородка) для группы предложил тот же самый пастор, который и посоветовал Кену и Джону создать группу. Такое название должно было символизировать смесь различных музыкальных направлений воедино[10]. В 1996 году вместе с продюсером Полом Эмберсолдом музыканты записали и выпустили свой дебютный одноименный альбом. Песни для альбома написали Стюарт и Купер. По словам Кена, идеи для песен они брали из Библии, проповедей, молитв, книг и жизни. Также они говорили, что группа хотела, чтобы Бог смог дотянуться до «заблудившихся» людей через их альбом[10]. Диск был в целом положительно встречен музыкальными критиками, однако не имел коммерческого успеха: альбом не смог попасть ни в один из американских хит-парадов. В 1997 году Skillet начали запись своего второго альбома, Hey You, I Love Your Soul, который был выпущен в 1998 году. Этот альбом обозначил смену стиля группы — переход от гранжа к более спокойному альтернативному року. Во время турне в его поддержку к Skillet присоединилась жена Джона — Кори Купер, играющая на синтезаторе и электрогитаре. Invincible, Alien Youth (1999—2003) В 1999 году Кен покинул коллектив, чтобы больше времени проводить вместе с семьёй и поступить в колледж. С этого момента Купер становится главным автором песен для группы. Место Стюарта занял гитарист Кевин Халанд. Кори Купер решила остаться в Skillet на постоянной основе. 1 февраля 2000 года группа выпустила свой третий альбом, названный Invincible. Вследствие изменений состава группы изменился и музыкальный стиль: качество пост-индастриала в аудиозаписях стало более явным и современным, а также в альбоме присутствовали элементы техно и электронной музыки[11]. После выхода Invincible Трей покинул коллектив. На его место приходит барабанщица Лори Петерс, которая до этого играла вместе с Кори в христианской группе Alkeme[12]. Спустя семь месяцев после релиза Invincible Skillet выпустили свой первый концертный альбом Ardent Worship, который был записан в стиле богопочитание (worship music). В альбом вошли 10 записей группы с концерта на Chi Music Room в Мемфисе. В записи двух песен, «Safe With You» и «Shout to the Lord», приняли участие бывшие участники Skillet: МакКларкин и Кен Стюартс[13]. В 2001 из Skillet уходит Кевин Халанд. Через знакомство с Кори на место покинувшего коллектив Кевина, приходит Бен Касика. 28 августа 2001 года вышел четвертый альбом группы, получивший название Alien Youth. Он занял 141 месте в американском чарте Billboard 200, став тем самым первым альбомом Skillet, который попал в данный чарт[14]. В 2002 и 2003 годах песни «Alien Youth» и «Vapor» были номинированы на премию GMA Dove Award. Collide (2003—2005) С 2002 года Skillet собирали новый материал для записи следующего альбома. Первой песней стала «A Little More». Над записью альбома с музыкантами группы поработал Пол Эмберсолд, с которым они трудились над дебютом, и на сей раз в знак признательности за то, что они помогли ему в работе с группой Stir на Capital Records, а также помогли группе Dropline. Пол сам предложил Skillet перебраться на мейнстрим-лейбл Lava. На момент предложения у Skillet не было достаточно средств на новую аудиостудию, но Пола это не волновало. Он просто сам хотел раскрутить группу, которую любил уже несколько лет. Аудиозапись Savior продержался на первом месте в хит-параде R&R’s более двух месяцев, и даже на Rock Radio, CMJ и так далее. 25 мая вышел переизданный альбом Collide специально для мейнстрима, с дополнительным треком Open Wounds, который стартовал сразу же со второго места в хит-параде R&R. Позже Skillet отправились в совместный тур с Saliva. Весной 2004 года Джон получил премию Dove awards за участие в мюзикле Hero The Rock Opera, постановщиком которого был Эдди Дегармо. Джон для подготовки к своей роли долго работал со знаменитым Питом Стюартом (Pete Stewart, Grammatrain, The Accidental Experiment). Hero The Rock Opera — одно из главных событий в христианской музыке 2003 года. В марте 2004 года Skillet отправились хедлайнером в совместный тур с 12 Stones, Pillar, Big Dismal, Grits, и каждый из этих христианских коллективов, на тот момент, имел контракт с мейджор-леблом. Collide стал одним из самых громких событий за последние несколько лет. Comatose (2006—2008) На одном из фестивалей в 2006 году группа прямо со сцены анонсировала свой новый альбом Comatose, который вышел 3 октября 2006 года. Первыми песнями стали «Rebirthing», «Whispers In The Dark» и «The Last Night». Вот что сказал об альбоме Джон Купер: «Как только я оказываюсь на сцене, для меня не важно, сколько человек пришло на концерт, я все равно отдам им все, что смогу. Я постараюсь сделать лучшее шоу, на которое только способен; сумасшедшее шоу. Я взорву их. Думаю, что нам удалось сохранить это чувство на альбоме». В январе 2008 года Skillet объявили, что Лори Петерс покидает коллектив. Как она сама прокомментировала: «Для меня пришло время начать новую главу в своей жизни»[15]. На место Лори в декабре 2007 приходит молодая барабанщица из Англии Джен Леджер (На момент прихода в Skillet Джен было всего 18 лет)[15]. 21 октября 2008 года группа выпускает Comatose Comes Alive на CD и DVD (концертная запись 9 мая 2008, Чаттануга, Теннесси). В 2009 году Comatose был присужден золотой статус[16]. Awake (2009—2011) Альбом «Awake» был выпущен 25 августа 2009 года. Он занял 2 место в хит-параде альбомов Billboard Top 200. В первую неделю релиза альбома было продано более 68 тысяч копий[17]. На текущий момент данный альбом является самым популярным альбомом группы[18]. Джон Купер заявил, что «Hero» не была песней для этого альбома. Она была включена в альбом лишь в марте 2010 года[19]. Примерно в это же время, альбом претерпел различные изменения. Так например, в сингле «Monster» добавили рычание, и были добавлены две дополнительные песни «Dead Inside» и «Would It Matter». Awake имел значительную популярность не только у фанатов Skillet. Аудиозаписи «Hero» и «Monster» попадали в различные телепередачи, становились саундтреками для видеоигр. «Hero» использовалась при рекламе первого футбольного матча NFL 2009 сезона между Pittsburgh Steelers и Tennessee Titans[источник не указан 195 дней]. Так же эта песня является саундтреком видеоигры WWE SmackDown vs. Raw 2010. «Monster» была использована в эпизоде «Jason: The Pretty-Boy Bully» на MTV в «Bully Beatdown»[20]. Также она была темой для «Королевская битва (2010)» и «Ад в Клетке»[источник не указан 195 дней]. 12 ноября 2010 года был выпущен мини-альбом «iTunes Session». Песни альбомов «Awake» и «Comatose» зазвучали по-новому. 21 марта 2011 года группа выпустила альбом «Awake And Remixed — EP», в который вошли ремиксы таких песен, как «Hero», «Awake And Alive», «Monster» и «Don’t Wake Me». 16 февраля 2011 года Skillet объявили, что гитарист Бен Касика покидает группу. Последний запланированный концерт он провел 20 марта.[21]. На его место группа выбрала Джонатана Саласа в качестве нового гитариста. Но 9 апреля, через twitter Салас потверждает, что покидает группу[22]. В результате, Бен Касика временно возвращается в состав Skillet[23]. 16 апреля в группу приходит новый музыкант Сет Моррисон[24]. По словам Сета, играть в Skillet — это его мечта, которую он воплотил в жизнь[25]. Также «Awake» выиграл премию «Top Christian Album» в Billboard Music Awards 2011, а также песня «Awake and Alive» стала саундтреком к фильму «Трансформеры 3: Тёмная сторона Луны»[26]. Rise (2011 — настоящее время) 21 июня 2011 года, через twitter, Джон сказал, что они сегодня первый раз репетировали музыку для нового альбома[27]. 18 Июля 2012 года, в интервью для RadioU, Джон Купер сказал, что в настоящее время написано около 61 демо, и что запись альбома планируется на октябрь. Релиз же запланирован на начало 2013 года[источник не указан 195 дней] . 14 декабря 2012 в твиттере Джона Купера появилась новость о том, что они уже закончили запись альбома и собираются начать миксовать его.[28] В интервью с CCM Magazine, Джон Купер описал свой альбом как «американские горки». Он сказал : "Новый альбом будет содержать агрессивные треки в новом для них направлении. Песни будут содержать симфонику и немного изменений . Одна из песен названа «Salvation».[29] В интервью Beaumont TX 26 Января, 2013, Джон Купер анонсировал альбом и сообщил, что он будет назван Rise и будет выпущен в Июне 2013.[30] Первый сингл же с альбома будет выпущен в апреле 2013[31]. 28 февраля Джон Купер сообщил в своем аккаунте Twitter, что их запись к завтрашнему дню будет окончательно закончена[32]. 9 апреля был выпущен первый сингл из альбома «Rise». Сингл был назван «Sick of It».[33] 16 апреля был выпущен второй сингл из альбома «Rise». Сингл был назван «American Noise». 14 мая был выпущен третий сингл из альбома «Rise», который был назван «Rise» 7 июня группа выпустила клип на песню «Sick of It» 10 июня был выпущен четвертый сингл из альбома «Rise». Сингл был назван «Not Gonna Die» 20 июня альбом попал в сеть. 25 июня альбом появился в продаже 3 июля группа выпустила клип на песню «American Noise» 5 февраля 2014 года Skillet выпустила клип на песню «Not Gonna Die». Музыкальный стиль На протяжении всего существования группы стиль неоднократно менялся. Первые композиции написаны в стиле пост-гранж[источник не указан 62 дня], затем группа сместилась в индастриал-метал. Последние три альбома были написаны в одном стиле[уточнить]. Гастроли группы Выступление Skillet 12 апреля 2008 года в Андерсонском университете, штат Индиана. В середине 2006 года Кори Купер перестала выступать со Skillet, поскольку была беременна. Её временно заменили два человека: Андреа Винчелл на клавишах и Крис Марвин на гитаре. Skillet гастролировали вместе с Роном Люси (Ron Luce) и Teen Mania Ministries (Объединение Евангельских Христиан среди молодёжи) в туре «Acquire The Fire», на территориях США и Канады, в 2007 году. По возвращению, они планировали с группой Flyleaf возглавить совместный тур «Justice & Mercy», однако он был отменён после нескольких выступлений, поскольку у вокалистки Flyleaf — Лейси Штурм (Мосли) возникли проблемы с голосом. Затем они выступили с программой «Luce’s Global Expedition» организованной Teen Mania Ministries в летней поездке с подростками в Мексику. В 2008 году Skillet вновь поучаствовали в туре «Acquire The Fire». Осенью 2007 года Skillet присоединились к гастролям групп Breaking Benjamin, Three Days Grace, и Seether[34]. Позже Skillet отправились в собственный «Comatose Tour» вместе с Thousand Foot Krutch, и в рамках данного тура посетили около 30 городов. Он начался 28 марта и закончился 11 мая 2008 года[35]. С апреля по июнь 2009 года, вместе с Decyfer Down и Disciple, Skillet снова отправляются в гастроль, который был назван «Comatose Tour 2009» (как продолжение «Comatose Tour» 2008 года). Осенью 2009 года Skillet начали гастролировать с Hawk Nelson, Decyfer Down, и The Letter Black в поддержку их нового альбома «Awake». «Awake and Alive» тур охватил 52 города и проходил с октября по январь. Выступление Skillet 1 июля 2010 года на «Cornerstone Festival» (штат Иллинойс). Skillet участвовали в фестивале христианской рок музыки под названием «Night of Joy Christian Rock» (Ночь радости христианского рока), организованной The Walt Disney Company в 2009 году[36]. В этом же году группа, впервые за пять лет, не приняла участия на концерте «Rock the Universe» в Орландо из-за загруженности графика. Однако в следующем году Skillet приняли участие в этом фестивале. Skillet, вместе с группами Jeremy Camp, Kutless, Hawk Nelson, Disciple, Decyfer Down выступили на музыкальном фестивале под названием «Awakening Music Festival» в Лисберге, штат Вирджиния. В январе 2010 года они гастролировали с Puddle Of Mudd и Shinedown по восточному побережью США[37][38]. Позже этот тур получил название «Awake Tonight Tour», в честь названий новых альбомов обеих групп. House of Heroes участвовали в этом туре на разогреве. С апреля по май группа продолжила свой «Awake and Alive tour» вместе с группми The Letter Black и Red[39]. В апреле было также объявлено, что Skillet будет выступать с Creed и Theft с августа по сентябрь 2010 года[40]. В октябре группа участвовала гвоздем программы вместе с Papa Roach в «Monsters of Annihilation Tour». Trapt и My Darkest Days также были участниками тура[41]. С ноября по декабрь 2010 года Skillet в «Winter Wonder Slam tour» вновь совместно выступали с TobyMac. 4 июля Skillet выступали на «Creation Festival East» и Джон Купер назвал это выступление лучшим шоу за всю историю карьеры[42]. Турне началось в конце марта 2011 года и завершилось 1 мая в Uncasville, штат Коннектикут. Также в туре приняли участие группы Halestorm и Art of Dying. У Skillet был небольшой интернациональный тур с января по февраль 2011 года, в котором они посетили Новую Зеландию[43], Австралию[44] и Японию[источник не указан 195 дней]. 23 ноября 2011 года Skillet впервые выступили на Украине в Киеве[45]. В конце ноября 2011 года Skillet впервые посетили с концертами Россию (25-26 ноября — Москву, 27 ноября — Санкт-Петербург, 29 ноября — Калининград). Также в Москве и Калининграде были проведена раздача автографов и фотосессия[45]. 7 августа 2013 года Skillet выступили на фестивале KUBANA в Анапе, после чего у них начался гастрольный тур по России. C 30 ноября по 8 декабря 2013 у них так же был тур по России. Они выступили в таких городах, как Москва, Санкт-Петербург, Екатеринбург, Нижний Новгород, Новосибирск и Красноярск. 10 декабря 2013 года они выступили на Украине в городе Киев. 4 июля группа выступит в Минске на "Open Air" фестивале "МОСТ". Дискография Основная статья: Дискография Skillet 1996: Skillet 1998: Hey You, I Love Your Soul 2000: Invincible 2001: Alien Youth 2003: Collide 2006: Comatose 2009: Awake 2013: Rise 2016: Unleashed Состав группы[править | править исходный текст] Текущий[править | править исходный текст] Джон Купер — вокал, бас-гитара (1996 — текущее время) Кори Купер — клавишные, ритм-гитара, бэк-вокал (1999 — текущее время) Джен Леджер — ударные, вокал (2008 — текущее время) Сет Моррисон — соло-гитара (апрель 2011 — текущее время) Бывшие участники[править | править исходный текст] Кен Стюартс — электрогитара (1996—1999) Трэй МакКларкин — ударные, бэк-вокал (1996—2000) Дэниэл Стифл — электрогитара (1999) Кевин Халанд — электрогитара (1999—2001) Лори Петерс — ударные (2000—2007) Джонатан Салас — соло-гитара (март — апрель 2011) Бен Касика — соло-гитара (2001—2011) На концертах[править | править исходный текст] Билли Досон — ритм-гитара (2000) Фейт Стерн — клавишные, вокал (2002—2003) Крис Марвин — ритм-гитара, бэк-вокал (2002—2003, 2005—2006) Андрэа Винчелл — клавишные (2005—2006) Тейт Олсен — виолончель (2008 — текущее время) Джонатан Чу — скрипка (2008 — текущее время) Скотти Рок — бас-гитара (2009—2011) Скрыть...
Популярные аккорды Skillet:
алфавиту | просмотрам | случайно
  • Intro
    e|-------0-----------------------------------------------------|
    B|-------------3--3----1-0-------------------------------------|
    G|-----------------2------------2----2--2---4brb---------------|
    D|---2------2---------------3----3-------3---------------------|
    A|-0--0---0---------0------------------------------------------|
    E|-------------------------1---1---1------1--------------------|
    
    Verse…
  • Em                        Am 
    I’m at war with the world and they  
                            Em 
    Try to pull me into the dark  
      Em                  Am 
    I struggle to find my faith  
             G       D         Em 
    As…
  • Tuning: Drop D
    
    INTRO
    e|-0-8-7-0-2-3-0-8-7-0-10-8-0-8-7-0-2-3-0-8-7-0-10-8-------------------------|
    B|---------------------------------------------------------------------------|
    G|---------------------------------------------------------------------------|
    D|---------------------------------------------------------------------------|
    A|---------------------------------------------------------------------------|
    D|---------------------------------------------------------------------------|
    						(continues…
  • The secrets inside of me, 
    G#5          
    G5 
    I never let you see, 
    F5           
    G5 
    I keep it caged 
          G#5   
    A#5 
    F5  E5(1fr)       
    But I can't control it. 
    F5            
    G5 
    So stay away from me, 
    G#5…
  • Intro 2x  <---- listen for the chord changes
    Em, C, Bm, D, D,
    Em, C, D, Bm, D,  (Em)<-Add Em in the 2nd time 
    
    Verse 1
    Em,     Em
    	I hate feeling like this 
    	D,
         	I’m so tired of trying to fight this 
    	C,…
  • Intro: (Am, Em, F, C) x3
    
    Verse 1:
    Am          Em          F           C
    Forgive me now cause I, have been unfaithful
    Am           Em                F        C
    Don't ask me why cause I don't know
    Am      Em…
  • Intro: 
    G - D (x4) 
     
     
          G           D           G             D 
    I saw angels fall down at the glory of the Lord 
        F#m  Bm              G 
    And as I raise my hands I sing 
          G           D           G…
  • Intro:
    Bm-G-F#
    
    Bm                          G                  F#
    You come to me with scars on your wrist
    Bm                                        G                  F#
    You tell me this will be the last night feeling…
  • Riff
    
    E|-0-7---2-8---|-0-7---3-2-3-|
    H|-------------|-------------|
    G|-------------|-------------|
    D|-------------|-------------|
    A|-------------|-------------|
    e|-------------|-------------|
    Intro: (With riff)
    Em,…
  • #D tuning (D,A,D,G,B,D). Chords used are D,E, F, C, Bb, G. 
    
    Accustic Intro
    
        D     A      C     G F D   A    C       G F     E 
    4/4
    D||-x--------------------------------------------------||
    B||-x--------------------------------------------------||
    G||*x----------------2-0------------------2-0---------*||
    D||*0-----2-3h-2---0---0-3-----2-3h-2---0---0-333-3-2-*||
    A||-0---0--------3-------3---0--------3-------333-3-2--||
    D||-0-0------------------3-0------------------333-3-2--||
    
    
    
    Electric…
  • Intro
    C#[--------------------------------------------------------]
    G#[--------------------------------------------------------]
    E [--------------------------------------------------------]
    B [--------------------------------------------------------]
    F#[-----8/7-7/8/7-7/8/7-7/8/7-----8/7-7/8/7-7/8/7-7/8/7----]
    B…
  • Standard Tuning - EADG
    
    no bass on the first intro and verse
    
    Prechorus:
    
    G|------------------------------------
    D|------------------------------------
    A|--555--555--555--555--888--88888----
    E|------------------------------------
    
    
    Chorus:
    
    G|-----------------------------------------------------------------------
    D|-----------------------------------------------------------------------
    A|-3333-33333-3333-//7777-77777-7777-------------------------------------
    E|------------------------------------555-555333-3333111-11111-1111--
    
    G|--------------------------------------------------------------------------
    D|--------------------------------------------------------------------------
    A|-3333-33333-3333-//7777-77777-7777-//12-12-12-12--105//10--8-8--8-8-8-8-
    E|--------------------------------------------------------------------------
    
    
    Intro…
  • C
    Tick tock hear the clock countdown
    G
    wish the minutehand could be rewound
    Am                                   F
    so much to do and so much i need to say
    will tomorrow be too late
    
    C
    feel the moment slip into the…
  • Intro: Em G
    
    Verse 1:  
    Em
    To find this love of mine
    G
    I'd walk through wind and fire
    D             C2
    Forever and always
    Em
    These hollow hands reach out
    G
    For you to touch me now
    D             C2
    Forever and…
  • F#sus4|G|G/B|G|
    
     Bm        
        Despite the lies that you're making 
        Your love is mine for the taking 
        My love is 
        Just waiting 
        To turn your tears to roses 
    
      D Bm F#m D F#m 
    
    
         B5…
  • Intro:
       C#     /    D#           Fm     /    G#           C#     /    E            Fm                         Fm      
    1)-8--6--8--9--8--6--4--3---8--6--8--9--8--6--4--3---8--6--8--9--8--6--4--3---8-8--8-8--8-8--8-6-8-9-8---8-8-
    
    1)-8-8--8-8--8-6-8-9-8-
    
    Verse:…
  • Verse
    play 3x
    
    ---------------------|
    ---------------------|
    --5------------------|
    --5----4--3--3----3--|
    --3----4--3--3----3--|
    -------2--1--1----1--|
    
    Chorus
    
    I---------------------------------------------------------------------|
    I---------------------------------------------------------------------|
    I--5--5--5--5--------------------------------8--8--8--8--8--8--8--8---|
    I--5--5--5--5…
  • Tune a half step down
    Intro   Em       G    D     Em     C    D (2x)
    
    Verse 1
    Em
    I'm just a step away
    G           D
    I'm a just a breath away
    Em
    Losing my faith today 
    C               D
    falling off the edge today
    Em
    I…
  • G  C2  Em7  D 0r  G   C   Em
    E:--3---3---3--------3---3---0--|
    B:--3---3---3--------3---5---0--|
    G:--0---0---0--------4---5---0--|
    D:--0---2---2--------5---5---2--|
    A:--2---3---2--------5---3---2--|
    E:--3---X---X--------3---X---X--|
    
    Intro:…
  • (Intro) C#m, Ebm, E, B, A, Ebm E x2 C#m, E x2
    
    
    C#m                     B     A   C#m
    I lie here paralytic inside this soul
    C#m                     B         A C3m
    Screaming for you till my throat is numb
    C#m
    I wanna…
  • Intro: F#m Asus2 Dsus2 D
    
    |--------13--13--12--12---------------8--8--7-----------13--13--12--12----|
    |--8/10------------------10--10/8--8-----------8--8/10--------------------|
    |-------------------------------------------------------------------------|
    |-------------------------------------------------------------------------|
    |-------------------------------------------------------------------------|
    |-------------------------------------------------------------------------|
    
    |---------------8--8--8h10------------------------------------------------|
    |--10--10/8--8--------------8---------------------------------------------|
    |-------------------------------------------------(end…
  • F#m 
    F#m
    F#m 
    F#m
    F#m 
    F#m
     
    G
    Let's get the story straight
    Hm
    You were a poison
    You flooded through my veins
    You left me broken
    You tried to make me think
    That the blame was all on me
             A
    With the…
  • Tuning: Standard (EADGBe)
    At the end of the Bridge, there is a C#/D, 
    and at the end of the song theres a F#/G. 
    I didnt exactly know what to call them not 
    so I just called them that! but here they are:
     
      [ch]C#/D[/ch]…
  • Alright well I only figured out the chorus for this song.
    
    C#[------------------------------------------------]
    G#[------------------------------------------------]
    E [----------------------------------33333333------]
    B…
  • Am = X02210
    Asus4 = X02200
    Em = X22000
    C/B = X22010 (not sure if thats the right name)
    
    Am              Asus4
    Why do I have to beg
                   Em
    When all that's left
    
    Is a memory
    C/B
    Forsaken
    [X2]
    Am…
  • Standard Tuning E-A-D-G-B-E
    
    Intro
    
    D#5 Bb5 G5
    
    D#5 Bb5 G5 F5
    
    Verse
    
    D#5 Bb5 G5
    
    D#5 Bb5 G5 F5 (x4)
    
    Pre-Chorus
    
    D#5
    
    Chorus
    
    G5 D#5 Bb5 F5
    
    G5 D#5 Bb5 C5
    
    G5 D#5 Bb5 F5
    
    G5 D#5 G5 F5
    
    Intro 
    
    Verse 
    
    Pre-Chorus
    
    Chorus
    
    Bridge
    D#5…
  • INTRO
    --x--x-x-x-x--x--x-x-x-x--x------------|
    --x--x-x-x-x--x--x-x-x-x--x------------|
    --x--x-x-x-x--x--x-x-x-x--x------------|
    --8--8-8-8-8--5--5-5-5-5-s8     repeat-| 12 times
    --6--6-6-6-6--3--3-3-3-3---------------|s6
    --6--6-6-6-6--3--3-3-3-3---------------|s6
    
    VERSE
    no…
  • Verse 1:
    
    C            G
     Things are changing
              F
    It seems strange and
                          C
    I need to figure this out
               G
    You've got your life
          F
    I got mine…
  • Intro: Guitar 1 (Clean with Delay)
    C#|------------------------------------------|
    G#|--10--------11---10---8-----10/6--6----5--|
     E|--------7---------------------------------|
     B|------------------------------------------|
    F#|------------------------------------------|…
  • The correct tuning is CGCFAD. To do this, just drop D, then drop all notes one full step.
    
    Intro - 3 times
    D------------------------------------------|
    A------------------------------------------|
    F------------------------------------------|
    C--2-2--2-2--2-2--5-5--2-2--2-2--2-2--12-5-|
    G--2-2--2-2--2-2--5-5--2-2--2-2--2-2--12-5-|
    C--2-2--2-2--2-2--5-5--2-2--2-2--2-2--12-5-|
    
    
    Verse…
  • Intro
    
    E D#m
    
    VERSE 1
    
    G#m                                          B
    Chasin these shadows, around this darkened room
    G#m                                            B
    Ive layed here so long, I don't even want to…
  • Intro
    
    Cm Bb Cm Fm D#
    Cm Bb Cm G# G
    
    Verse_1
    
    Cm       Bb
    When everything you do
    Cm            Fm G 
    Don't seem to matter
    Cm           Bb 
    Your trouble is not usual 
    Cm                G#m G
    World is getting…
  • [Verse 1]
    Cadd9
    I went to bed I was thinking about you
    Am
    ain't the same since I'm living without you
    Dm
    All the memories are getting colder
    F
    All the things that I wanna do over
    Cadd9
    Went to bed I was thinking…
  • VERSE 1
    Am
      Do you know what it’s like when
    F
      You’re scared to see yourself
    Am
      Do you know what it’s like when
    F
      You wish you were someone else
    Am                    F
      Who didn’t need your help to get…
  • Intro/Fill 1 
    D#--------------------------------------------------------------------
    A#--------------------------------------------------------------------
    F#--------------------------------10-------------------------------9--
    C#----0---8p7---0---8p7---00---00-----0---8p7---0---8p7---00---00-----
    G#----0---8p7---0---8p7---00---00-----0---8p7---0---8p7---00---00-----
    C#----0---8p7---0---8p7---00---00-----0---8p7---0---8p7---00---00-----
    
    Verse
    D#--------------------------------------------------------------------
    A#--------------------------------------------------------------------
    F#--------------------------------------------------------------------
    C#----0--0--0-------0--0--0-------0--0--0------------00-00-00-0000----
    G#----0--0--0--5p3--0--0--0--5p3--0--0--0-----5p3----00-00-00-0000----
    C#----0--0--0-------0--0--0-------0--0--0------------00-00-00-0000----…
  • Intro
    
    C G B C x2
    
    E-----------------|-----------------|
    B-0---1-----0-----|--0----0--1----1-|  Piano riff that
    G---0----0--------|-----0-------0---|  basically plays during the first 
    D-----------------|-----------------|…
  • G/B: x 2 0 0 3 3
    
    
    Intro: C  G/B  Am  F
    
    
    C          G/B             Am              F
    Learning inside, i will be safe with You tonight
    
    
    C             G/B           Am              F                  
    You cause…
  • Tuning: (Eadgbe)
    
    Verse 1:
      D                   G
    I see you standing here
    Hm            A   G
    But you’re so far away
    D                       G
    Starving for your attention
    Hm             A       G
    You don’t even…
  • Intro:
    C# A E B
    C# A E F#
    
    Verse:
    C# (repeat C# throughout)
       We have fallen
    
       We have fallen again tonight
    
       Where do we go from here
    
       When they're tearing down our lives?
    
       When all they want is…
  • Intro
    
    C#m (x3)
    C#m G#
    
    Verse 1
    
    C#m       F#m            G#m
    All alone lost in this abyss
                    C#m
    Clawing in the dark
               F#m              B
    Nothing to wet my longing lips
            G#…
  • Intro/verse
      Gtr1
    ||----------------------|---------------------|
    ||o---------------------|---------------------|
    ||----------------------|---------------------|
    ||--5-5-5-x-3-3-x-6-x-x-|-5-5-5-x-3-3-x-6-x-x-|
    ||o-3-3-3-x-3-3-x-3-x-x-|-3-3-3-x-3-3-x-3-x-x-|
    ||--3-3-3-x-3-3-x-3-x-x-|-3-3-3-x-3-3-x-3-x-x-|…
  • Verse
    G--------------------------------
    D--------------------------------
    A--4-4-4---2--2---1-1-1---1--1---
    E--------------------------------
    
    G--------------------------------
    D--------------------------------
    A----------4--4------------------
    E--2-2-2----------4-4-4---4--4---
    
    Chorus
    G------------------------------------------------------
    D------------------------------------------------------
    A------------------------------------------------------
    E--2-2-2--2-4-4-4--4/62-2-2--2-6-6-6--4-4-4--62-2-2--
    
    Bridge
    G-----------------------------------------------------------
    D-----------------------------------------------------------
    A------------------3-3-3-3-4-4-4-4-----------------4-4-4-4--
    E--2-2-2-2-2-2-2-2-----------------2-2-2-2-2-2-2-2----------
    
    G----------------------------------|------
    D----------------------------------|------
    A--4-4-4-3-1-1-1-1-----------------|-6----
    E------------------4-4-4-4-2-2-2-2-|------…
  • Intro: C (4 beats) E (4 beats) C (4 beats) G (4 beats)
    
    C                   E
    Come on, Come on, Come on to the future
    C                 G
    Come all, Come all the way
    C                   E
    Come on, Come on, Come on…
  • Intro: Em C G D (2x)
    
    Verse:
         Em            C
    If I wasn't here tomorrow
          G       D
    Would anybody care
          Em            C
    If my time was up I wanna know
             G           D
    You were happy I was there…
  • Verse:
    
    Come in w/ this after "I'm gone."
    
    G----------------------------------------|
    D----------------------------------------|
    A--0--0----------0-----------------------|
    E---3--1-1-313---------------------------|
    
    G----------------------------------------|
    D----------------------------------------|
    A--0--0----------------------------------|
    E----3--1-1-3----------------------------|
    
    Pause,…
  • Intro:
    D - A - Bm - G (x2)
    
    
    Verse 1:
    D         A           Bm         G
     I ask him when will I be free he said I am
    D          A           Bm             G          F              C
     Asking him when will I change…
  • Intro
    
    Am
    Em Am
    Em F
    D# Dm F 
    D# Dm Am
    
    Verse 1
    
    Em          Am      Em
    Who's gonna save us all
    F           D#          F   D# Dm Am 
    Nothing and nobody but you
    Em          Am       Em
    Who's gonna make me…
  • Guitar Actually Starts when he says
    Is there Anything,
    C ]-------------------------------------------------------------------------|
    G ]-------------------------------------------------------------------------|
    D#]-------------------------------------------------------------------------|
    A#]-------------------------------------------------------------------------|
    F…
  • One Verse Riff
    E----------------------------------------------|
    B--------4-4-------3-3-1-1------4-4------3-1-1-|
    G----------------------------------------------|
    D----------------------------------------------|
    A--3-3-3-----3-3-3--------3-3-3----3-3-3-------|
    E----------------------------------------------|…
  • Intro
    
    Am  Am  F  G Em  (*)
    Am  Am  F  G Em
    Am  Am
    
    Verse 1
    
    Am
    The world around me Is lost in misery
    F                   G         Em     Am    (*)
    The only good I've got in my life is you          
    Am
    No meaning,…
  • Intro
    
    Dm
    Dm
    Dm C Dm Gm F (x4)
    
    VERSE 1
    
    Dm
    You push me 'til I break
    Dm
    And the anger turns to rage
    Dm                                 Gm
    Why can't you just leave me alone?
    Dm
    You've got your finger on the…
  • Chorus
              power chords
    
    A 5,7,7,X,X,X  F 1,3,3,X,X,X  E 0,2,2,X,X,X  C X,3,5,5,X,X
    G 3,5,5,X,X,X
    
    A 5.7.7.X.X.X  F 1,3,3,X,X,X  E 0,2,2,X,X,X  G# 4,6,6,X,X,X
    G 3,5,5,X,X,X
    
                   REPEAT
  • Intro
    
    Bm D A F#m
    Bm D A F#m
    
    VERSE 1
    
    Bm
            G                     D
    You're on the edge of givin' up
                       Bm
    You know I feel it too
              G           D
    You won't be alone because…
  • G Bm7 C   G D C
    Je-sus,    Je-sus,
    
    G    D       C   Am
    Holy and Anointed One,
    
    G D G
    Je-sus
    
    G Bm7 C  G D C
    Je-sus,   Je-sus,
    
    G     D      C   Am
    Risen and Exalted One,
    
    G D G
    Je-sus…
  • intro 7X I think
    e--------------------------------------------------------------------------|
    B--------------------------------------------------------------------------|
    G-14-14-14-14-14-14\13-13-13-13-13-13\11-11-11-11-11-11\7-7-7-7-7-7--------|
    D-X--X--X--X--X--X--X--X--X--X--X--X--X--X--X--X--X--X--X-X-X-X-X-X--------|
    A-12-12-12-12-12-12\11-11-11-11-11-11\9--9--9--9--9--9-\5-5-5-5-5-5--------|
    E--------------------------------------------------------------------------|
    verse
    e--------------------------------------------------------------------------|
    B--------------------------------------------------------------------------|
    G-------------------------------------7-7-7-7-7-7--------------------------|
    D-7-7-7-7-7-7-2-2-2-2-2-2-4-4-4-4-4-4-7-7-7-7-7-7--------------------------|
    A-7-7-7-7-7-7-2-2-2-2-2-2-4-4-4-4-4-4-5-5-5-5-5-5--------------------------|
    E-5-5-5-5-5-5-0-0-0-0-0-0-2-2-2-2-2-2--------------------------------------|…
  • Intro
    G---------------------------------------------------------------|
    D---------------------------------------------------------------|
    A--33333334-33333334-33333334/(15)(15)(15)(15)(15)(15)(15)(15)--|
    E---------------------------------------------------------------|
    
    
    Interlude
    G-----------------------|
    D-----------------------|
    A-----------------------|
    E--8\\--8--8\\--8--8\\--|
    
    
    Verse
    G------------------------------|
    D------------------------------|
    A------------------------------|
    E--8-8-8-8-8-88-89--8-8-8-8-8--|
    
    
    Chorus
    G-------------------------------------------|
    D-------------------------------------------|
    A--3333----------------3333-----------6666--|
    E-------1111-6666-3333------1111-6666-------|
    
    G-------------------------------------------|
    D-------------------------------------------|
    A--3333-------------------------------------|
    E-------1111-6666-3333-44444444-3333(3333)--|…
  • Intro
    
    Am
    
    Verse 1
    
    Am
    Every brick and every stone
             C                                  F
    Of the world we made Will come undone in a fire
              Dm                Am
    If i can feel you here with me 
    Am
    In…
  • Intro
    
    G Em Bm
    G Em Bm 
    G Em Bm
    G Em
    
    VERSE 1
    Bm
    Welcome to the Freak show!
    Bm
    Step up, status quo!
    Bm                        A
    Hope you enjoy the ride!
    Bm
    Welcome to the Freakshow!
    Bm
    We've got horns and…
  • Verse 1:
    F       G       C
    Love me like no other
    F        G         Am    G     F  
    You have been the Savior of my life
    F    G        C
     You know my weakness
        Bm        Am            G      F
    But see me beautiful…
  • Intro
    
    C G
    F G
    C G
    F
    
    VERSE 1
    
          C                     G    F
    When all you've got are broken dreams
    G      C               G   F
    Just need a second chance
         C                 G   F
    And everything you…
  • Tuning: (E-A-D-G-B-e)
    
    Intro:
    C - E - C - G (x2)
    
    
    Verse 1:
    C                   G  Am                 C
     Come and fear the Lord and quake at His might
    C                   G  Am                    C
     Come and bow…
  • Intro/Interlude
    G------------------
    D------------------
    A------------------
    E--0-0-00--1-1-10--
    
    no bass on first verse
    
    Chorus
    G-------------------------------------
    D-------------------------------------
    A--0-0-00--03-3-33--32-2-22--21-1-11--
    E-------------------------------------
    
    G-----------------------------------------
    D-----------------------------------------
    A--10-0-00--03-3-33--32-2-22--2/7-7-7-7--
    E-----------------------------------------
    
    Verse
    G-------------------------|-------------------------
    D-------------------------|-------------------------
    A--0-0--3-3--0-0----------|-0-0--3-3--0-0-----------
    E-----------------2-2-1-1-|----------------3-3-3-3--
    
    Bridge
    G--------------------------------------------
    D--------------------------------------------
    A--2222-2222-3333-7777--2222-2222-3333-------
    E--------------------------------------3333--
    
    G--------------------------------------------------------
    D--------------------------------------------------------
    A--2222-2222-3333-7777--3333-3333-7777-(10)(10)(10)(10)--
    E--------------------------------------------------------…
  • Intro X2 
    
    Guitar 1:Thomas Zandavali 
    
    Intro x2
    
    E|--10---10---10---12---12---12|    |--10---10---10---12---12---12|
    B|-----8----8----8-------------|    |-----8----8----8----8----8---|
    G|-----------------------------|…
  • G    Asus A  (x4)
    G          Asus A   G                 Asus    A
       Here I lie again,     inside this broken body
    G               Asus       A      G            Asus  A
       Wrestle against the tree,     my muscles aching
    G…
  • Chords:
    F#sus4[addE]   244300
    Asus           577600
    E              022100
    D6[addE]       557700
    Bsus4          224400
    C#7[addE]      x43420
    Asus2          002200
    C7M            335500
    Dsus           x00230
    A7…
  • Intro:C-G-Am-F 2x
    
    (Verse 1)
    
    C
    I'm done wondering where you've been
        G
    All night long when you're out with your friends
        Am
    All you say, that the matter's over
    F
    But now that chapter's over
    C
    I'm done…
  • e|---------------------------------------------------------------------------|
    B|---------------------------------------------------------------------------|
    G|---------------------------------------------------------------------------|
    D|-0---------2----------3-----------33-00-22---------------------------------|
    A|-------------------------------------------33------------------------------|
    E|----0000------0000---------0000--------------------------------------------|…
  • Intro
    
    G#m B E
    G#m B E
    
    VERSE 1
    
    G#m           B         E
    Turned on the TV yesterday
             G#m             B       E
    So much pain bleeding through I had to look away
    C#m   G#m            B                E
    But…
  • Intro:    G / / / | / / / / | Am / / / | C / / / |  (2x)
    
    
    Vs. 1:
    
    G
    Talking to God
    Am         C
    hearing what He wants
    G         
    He moves in violence
    Am        C
    I stand in silence
    
    G#
    Who can question You?…
  • Intro:
    D - Em - C (2x)
    
    Verse 1:
    D    Em       C            G
    Speak and my heart starts aching
    D    Em        C        G
    Reach and the numbness dims
    D    Em          C      G
     Beat, still my mind uncertain
    D…
  • Tuning:D-a-d-g-b-e
    (intro)
    e|---------|
    B|---------|
    G|---5-----|
    D|---5-----|
    A|---3-----|
    D|---------|X2 (play it when u hear it...)
    Verse 1 (no guitar)
    
    (Pre-Chorus)
    e|---------------------------------------------------------------------------|
    B|---------------------------------------------------------------------------|
    G|---------------------------------------------------------------------------|
    D|--7-7----7-7-7----7-5-5-----5-5-5-----7-7-7-7-7-7-7-7--5-5-5-5-5-5---------|
    A|--7-7----7-7-7----7-5-5-----5-5-5-----7-7-7-7-7-7-7-7--5-5-5-5-5-5---------|
    D|--7-7----7-7-7----7-5-5-----5-5-5-----7-7-7-7-7-7-7-7--5-5-5-5-5-5---------|
    
    chorus
    e|---------------------------------------------------------------------------|
    B|---------------------------------------------------------------------------|
    G|---------------------------------------------------------------------------|
    D|--7-7-7-7-----------7-7-7-7-----------7-7-7-7-----------7-7-7-7------------|
    A|--5-5-5-5--3-3-3-3--5-5-5-5--3-3-3-3--5-5-5-5--3-3-3-3--5-5-5-5--5-2--3----|
    D|-----------3-3-3-3-----------3-3-3-3-----------3-3-3-3-----------5-2--3----|
    
    
    e|---------------------------------------------------------------------------|
    B|---------------------------------------------------------------------------|
    G|---------------------------------------------------------------------------|
    D|--7-7-7-7-----------7-7-7-7-----------7-7-7-7------------------------------|
    A|--5-5-5-5--3-3-3-3--5-5-5-5--3-3-3-3--5-5-5-5---4-4-5-5-0-0-x-x-x-x--------|
    D|-----------3-3-3-3-----------3-3-3-3------------4-4-5-5-0-0-x-x-x-x--------|
    
    (post-chorus)
    e|---------------------------------------------------------------------------|
    B|---------------------------------------------------------------------------|
    G|---------------------------------------------------------------------------|
    D|--------------------------------------------------5-5-x-x-3-5-x-3-x-4------|
    A|--8--8--x--x--8--8-x-x-x-x-------------------------------------------------|
    D|--8--8--x--x--8--8-x-x-x-x---5-5-x-x-3-5-x-3-x-4/--------------------------|
    
    (intro)x2
    
    (verse…
  • Dropped C# tuning:
    C#,G#,C#,F#,A#,D#
    
    I haven't figured out the picking part (the intro) yet, sorry
    But the rest goes like this...
    
    
    Pre-pre-chorus (I didn't know what to call it ;)
    
         P.M.
    D#---------|
    A#---------|
    F#---------|
    C#-0-00000-|
    G#-0-00000-|
    C#-0-00000-|…
  • figure1
    G--------------------------------------------------------------
    D-------------------4-4-4-4-4-4-4-4-4--------------------------
    A-6-6-6-6-6-6-6-6-6-------------------4-4-4-4-4-4-4-4-4--------
    E--------------------------------------------------------------
    
    G----------------------|
    D----------------------|
    A----------------------|
    E-7-7-7-7-7-7-7-7-7-7--|
    
    figure2
    G-----------------------------------------------------------------|
    D-------------------4-4-4-4-4-4-4-4-4-----------------------------|
    A-6-6-6-6-6-6-6-6-6-------------------4-4-4-4-4-4-4-4-4-----------|
    E--------------------------------------------------------6-6--6-6-|
    
    figure…
  • Drop D tuning.  Ignore the top 2 lines, and enjoy 
    
    -----------------|-----------------|-----------------|-----------------|------
    -----------------|-----------------|-----------------|-----------------|------
    -----------------|-----------------|-----------------|-----------------|------
    -----------------|-----------------|-----------------|-----------------|------
    -----------------|-1-1-1-0-0-1-1-1-|-----------------|-3-3-3-2-2-3-3-3-|-4x---
    -0-0-0-0-3-3-3-3-|-----------------|-0-0-0-0-3-3-3-3-|-----------------|------…
  • Intro and 1st verse
    X    X    X
    X    X    X
    9    X    X
    9    9   12
    7    9   12
    X    7   10
    
    Transition to 2nd verse                        
    X          X           X     X    X    X     
    X          X…
  • Intro: (tab on the way) D string 2nd fret held while G string 5th to 4th fret
    
    (rhythm shown kind of in tab)
    
    E 
    B 
    G 4 4 44 22 2 22 5 5 55 44 4
    D 2 2 22 22 2 22 2 2 22 22 2
    A
    E
    
    Heaviness: E5            A-Eb,…
  • Introduction/Chorus
    (Don't play first few measures)
        F#      C#   G#
    G|--------------------------
    D|--------------------------
    A|----------4444------------
    E|--22222222----4444--------  
    
              Verse 1
     (Don't…
  • |---------------------------------------|
    |---------------------------------------|
    |---------------------------------------|
    |-3~~~----------------------------------|
    |------3~~~-5--5--5--5--5--5--5-5-5-5-5-|
    
    Drum…
  • Verse: all the verses are played this way.
    G|---------------------------------------------------------------------------|
    D|---------------------------------------------------------------------------|
    A|---------------------------------------------------------------------------|
    E|-3-3-3----3-3-3----3-3-3----3-3-3----3-3-3---------------------------------|
    Just…
  • Intro (0:28)
    
    C#|----------------------------|
    G#|----------------------------|
    E |----------------------------|
    B |--5--5--5--5--0--0--0--0----|
    F#|--5--5--5--5--0--0--0--0----|
    B |--5--5--5--5--0--0--0--0----|
    
    
    ----------------------------|----------------------------|
    ----------------------------|----------------------------|
    ----------------------------|----------------------------|
    --1--1--1--1--x--x--1--1----|--5--5--5--5--0--0--0--0----|
    --1--1--1--1--x--x--1--1----|--5--5--5--5--0--0--0--0----|
    --1--1--1--1--x--x--1--1----|--5--5--5--5--0--0--0--0----|
    
    
    ----------------------------|----------------------------|
    ----------------------------|----------------------------|
    ----------------------------|----------------------------|
    --1--1--1--1--x--x--1--1----|--5--5--5--5--0--0--0--0----|
    --1--1--1--1--x--x--1--1----|--5--5--5--5--0--0--0--0----|
    --1--1--1--1--x--x--1--1----|--5--5--5--5--0--0--0--0----|
    
    
    ----------------------------|----------------------------|
    ----------------------------|----------------------------|
    ----------------------------|----------------------------|
    --1--1--1--1--x--x--1--1----|--5--5--5--5--0--0--0--0----|
    --1--1--1--1--x--x--1--1----|--5--5--5--5--0--0--0--0----|
    --1--1--1--1--x--x--1--1----|--5--5--5--5--0--0--0--0----|…
  • Am G/B F C Amadd2 F7M   G C
    
    Here's the chords.
        Am   G/B    F     C    Amadd2   F7M      G
    e|--X-----X-----X-----X------X--------0------X-|
    B|--1-----3-----1-----1------0--------1------3-|
    G|--2-----0-----2-----0------5--------2------0-|
    D|--2-----0-----3-----2------5--------3------0-|
    A|--0-----2-----3-----3------0--------3------X-|
    E|--X-----x-----x-----x------X--------X------3-|
    This…
  • Intro
    E----------------------------------------------------------------------|
    B----------------------------------------------------------------------|
    G---------------777-------------444--------------777-------------444---|
    D--0-0-6650-00-7555--0-6650-00-5222-0-0-6650-00-7555--0-6650-00-5222---|
    A--0-0-6650-00-7555--0-6650-00-5222-0-0-6650-00-5-----0-6650-00-3------|
    D--0-0-6650-00-------0-6650-00------0-0-6650-00-------0-6650-00--------|…
  • Bass:
    
    the verses are just a cycle of this..
    
    e|--2-2--5--10-10--9--2-2--5--10-10--9--5/9-9b--|
        F#   A  D      C# F#   A  D      C#
    
    it ends on the 10 (D) before it goes to the chorus..soo cut it here
    
    and the…
  • *4-string* (one octave high)
    
    Interlude
    G---------------------
    D-----6-666-----------
    A--555------5553-333--
    E---------------------
    
    Verse
    G---------------------------------------
    D-----------------------------------3-3-
    A--5~-5-5-5--5~-5-5-5--5~-5-5-5--5~-----
    E---------------------------------------
    
    Chorus
    G---------------------------------------
    D--------4h6-7-55-555--5----8-8-55-555--
    A--55--5----------------5-5-------------
    E---------------------------------------
    
    Bridge
    G--------------------------
    D--------------------------
    A--55----55----55----55----
    E--------------------------
    
    
    *5-string*
    
    Interlude
    G---------------------
    D---------------------
    A---------------------
    E-----4-444-----------
    B--333------3331-111--
    
    Verse
    G---------------------------------------
    D---------------------------------------
    A---------------------------------------
    E---------------------------------------
    B--3~-3-3-3--3~-3-3-3--3~-3-3-3--3~-6-6-
    
    Chorus
    G---------------------------------------
    D---------------------------------------
    A---------------------------------------
    E--------2h4-5-33-333--3----6-6-33-333--
    B--33--3----------------3-3-------------
    
    Bridge
    G--------------------------
    D--------------------------
    A--------------------------
    E--------------------------
    B--33----33----33----33----…
  • Tuning: Drop C
    
    Intro
    e|------------------------------------------------------------------------------|
    B|------------------------------------------------------------------------------|
    G|------------5-----------------------------------------------------------------|
    D|-3-0----0-3-5-3-0----0-3-8-7--------------------------------------------------|
    A|-3-0----0-3-3-3-0----0-3-8-7--------------------------------------------------|
    E|-3-0----0-3---3-0----0-3-8-7--------------------------------------------------|
    
    Verse
    e|-----------------------------------------------------------------------------|
    B|-----------------------------------------------------------------------------|
    G|-----------------------------------------------------------------------------|
    D|-----------------------------------------------------------------------------|
    A|-------------3---------------1-0---------------------------------------------|
    E|--3-0----0-3---3-0--0-3-0----------------------------------------------------|
    
    Play…
  • Chords used:            Bm  ( 7 9 9 7 X X )
                            A   ( 5 7 7 6 X X )
                            G   ( 3 5 5 4 X X )
                            D   ( X 5 5 7 X X )
    
    
    Intro &
    
    Verse:
                    B…
  • Lick one: (played during prechorus & Intro)
    
    
    G|------------------|
    D|------------------|
    A|---2--3--5--------|
    E|------------------|
    
    
    solo:
    
    G|------------------|
    D|------------------|
    A|-2--3--5--/-------|
    E|------------------|
    
    Verses:
    
    G|-------------------|
    D|-------------------|
    A|--2-2--3-3--4-4----|
    E|-------------------|
    
    Chorus:
    
    C#
    E…
  • Intro
    
    G|--------|--------|---------|--------|
    D|--------|--------|---------|--------|
    A|-5------|-(5)----|-2-------|--------|  x2
    E|--------|--------|---------|-3------|  
    
    
    Verse
    
    G|--------|--------|---------|--------|
    D|--------|--------|---------|--------|
    A|-5------|-(5)----|-2-------|--------|…
  • Verses:  (This isn't the correct number of times you play each note but 
               if you try you should get it)
    G|--------------------------------------|
    D|------------------1-1-1-1-------------|
    A|-----2-2-2-2-2-2-----------0-0-0-0----|
    E|--------------------------------------|
    
    Chorus:…
  • Intro:
    A-0-0-0---0-0-----0-0-0---0-0-----|
    
    Verse:
    A-------------------------2-2-2b4-------------------------2--6-----
    E-2-2-2-2-2-2-2-2-0-0-0-0---------2-2-2-2-2-2-2-2-0-0-0-0---4--4---
     (Palm Mute)…
  • Verse:
    A             A 
    Tоdаy we live, tоdаy we breathe
    D                            D
    Tоdаy we кnоw that we are strоng when we are weak
    A              A
    Tоdаy we trust, we оverсоme
    D…
  • Intro:
       Em     D   Em     G D  Em     D   Em     G D  Em     D   Em     G D  Em     D   Em     G D
    4)-2-2--2-0---2-2--2-5-0--2-2--2-0---2-2--2-5-0--2-2--2-0---2-2--2-5-0--2-2--2-0---2-2--2-5-0-
    5)-2-2--2-0---2-2--2-5-0--2-2--2-0---2-2--2-5-0--2-2--2-0---2-2--2-5-0--2-2--2-0---2-2--2-5-0-
    6)-0-0--0-----0-0--0-3----0-0--0-----0-0--0-3----0-0--0-----0-0--0-3----0-0--0-----0-0--0-3---…
  • Intro: Cm }x4
    
    Cm
    Target on my back
    D#
    Lone survivor lasts
    A#                    F
    They got me in their sights
    Cm
    No surrender no
      D#
    Trigger fingers go
    A#                    F
    Living the dangerous life
    
    Cm
    Hey,…
  • Intro: G#m F# B }x2
    
    Verse 1:
    G#m                   B   G#m
    You spoke a word, life began
                              B             G#m
    Told oceans where to start and where to end
                            B        
    You…
Наверх