Аккорды Skillet - Back From The Dead

Добавлено: @romashka
Дата добавления: 10 Июня 2018г.
Рейтинг:
0.0
Просмотров: 26
Транспонировать - +
Intro:
   Em     D   Em     G D  Em     D   Em     G D  Em     D   Em     G D  Em     D   Em     G D
4)-2-2--2-0---2-2--2-5-0--2-2--2-0---2-2--2-5-0--2-2--2-0---2-2--2-5-0--2-2--2-0---2-2--2-5-0-
5)-2-2--2-0---2-2--2-5-0--2-2--2-0---2-2--2-5-0--2-2--2-0---2-2--2-5-0--2-2--2-0---2-2--2-5-0-
6)-0-0--0-----0-0--0-3----0-0--0-----0-0--0-3----0-0--0-----0-0--0-3----0-0--0-----0-0--0-3---
    B-b--b-b-b--b--b--back B-b--b-b-b--b--b--back B-b--b-b-b--b--b--back B-b--b-b-b--b--b--back

Verse:
4)-2--2-0---2--2-2-2-5-0-
5)-2--2-0---2--2-2-2-5-0-
6)-0--0-----0--0-0-0-3---

Em    /    D     Em    /  (G / D)
Cold and black inside this coffin
Em    /    D          Em  /  (G / D)    
Cause you all try to keep me down
Em  /  D        Em / (G / D)   
How it feels to be forgotten
Em    /    D         Em / (G / D)     
But you'll never forget me now

Em / D    Em    /   (G / D)      
Enemies clawing at my eyes
     Em    /    D    Em     /     (G / D)    
I scratch and bleed, just to stay alive, yeah
C            A              
The zombies come out at night
C    
They'll never catch me
A
They'll never catch me

   Em     D   Em     G D  Em     D   Em     G D
4)-2-2--2-0---2-2--2-5-0--2-2--2-0---2-2--2-5-0-
5)-2-2--2-0---2-2--2-5-0--2-2--2-0---2-2--2-5-0-
6)-0-0--0-----0-0--0-3----0-0--0-----0-0--0-3---
    B-b--b-b-b--b--b--back B-b--b-b-b--b--b--back

Chorus:
Em                    Em     
Light it up, light it up, now I'm burning
D                        D
Feel the rush, feel the rush of adrenaline
C                       C
We are young, we are strong, we will rise
           A           B        
Cause I'm back, back, back from the dead tonight
Em                     Em 
To the floor, to the floor, hit the red line
D                    D         
Flying high, flying high at the speed of light
C                      C
Full of love, full of light, full of fight
           A           B
Cause I'm back, back, back from the dead tonight

   Em     D   Em     G D  Em     D   Em     G D
4)-2-2--2-0---2-2--2-5-0--2-2--2-0---2-2--2-5-0-
5)-2-2--2-0---2-2--2-5-0--2-2--2-0---2-2--2-5-0-
6)-0-0--0-----0-0--0-3----0-0--0-----0-0--0-3---
    B-b--b-b-b--b--b--back B-b--b-b-b--b--b--back

Verse:
Em    /    D       Em   /   (G / D)    
Break the skin, spread like poison
Em  /  D           Em / (G / D)          
Dying slow when we all attack
Em  /  D        Em / (G / D)  
How it feels to be the broken
Em    /    D             Em   /  (G / D)         
You took a piece now I'm biting back

Em / D    Em    /   (G / D)      
Enemies clawing at my eyes
     Em    /    D    Em     /     (G / D)    
I scratch and bleed, just to stay alive, yeah
C            A              
The zombies come out at night
C    
They'll never catch me
A
They'll never catch me

   Em     D   Em     G D  Em     D   Em     G D
4)-2-2--2-0---2-2--2-5-0--2-2--2-0---2-2--2-5-0-
5)-2-2--2-0---2-2--2-5-0--2-2--2-0---2-2--2-5-0-
6)-0-0--0-----0-0--0-3----0-0--0-----0-0--0-3---
    B-b--b-b-b--b--b--back B-b--b-b-b--b--b--back

Chorus:
Em                    Em     
Light it up, light it up, now I'm burning
D                        D
Feel the rush, feel the rush of adrenaline
C                       C
We are young, we are strong, we will rise
           A           B        
Cause I'm back, back, back from the dead tonight
Em                     Em 
To the floor, to the floor, hit the red line
D                    D         
Flying high, flying high at the speed of light
C                      C
Full of love, full of light, full of fight
           A           B
Cause I'm back, back, back from the dead tonight

   Em                                              Em
1)-15-15-15-15-15-15-15-15-14-14-14-14-14-14-14-14-12-12-12-12-12-12-12-12-------------------------
2)-------------------------------------------------------------------------12-12-12-12-12-12-12-12-

   D                                               D
1)-15-15-15-15-15-15-15-15-14-14-14-14-14-14-14-14-12-12-12-12-12-12-12-12-------------------------
2)-------------------------------------------------------------------------12-12-12-12-12-12-12-12-

   A                                               B                                               C
1)-15-15-15-15-15-15-15-15-14-14-14-14-14-14-14-14-17-17-17-17-17-17-17-17-15-15-15-15-15-15-15-15-19-
2)----------------------------------------------------------------------------------------------------
   Back,                   back,                   back     from   the    dead         tonight

C                      D                        Em  Em    
Deep down, for the count, don't you dare cut me out
C                     D                   Em  Em
Never break, never bow, never beg, not a doubt

C            A              
The zombies come out at night
C    
They'll never catch me
A
They'll never catch me

   Em     D   Em     G D  Em     D   Em     G D  Em     D   Em     G D  Em     D   Em     G D
4)-2-2--2-0---2-2--2-5-0--2-2--2-0---2-2--2-5-0--2-2--2-0---2-2--2-5-0--2-2--2-0---2-2--2-5-0-
5)-2-2--2-0---2-2--2-5-0--2-2--2-0---2-2--2-5-0--2-2--2-0---2-2--2-5-0--2-2--2-0---2-2--2-5-0-
6)-0-0--0-----0-0--0-3----0-0--0-----0-0--0-3----0-0--0-----0-0--0-3----0-0--0-----0-0--0-3---
    B-b--b-b-b--b--b--back B-b--b-b-b--b--b--back B-b--b-b-b--b--b--back B-b--b-b-b--b--b--back

Chorus:
Em                    Em     
Light it up, light it up, now I'm burning
D                        D
Feel the rush, feel the rush of adrenaline
C                       C
We are young, we are strong, we will rise
           A           B        
Cause I'm back, back, back from the dead tonight
Em                     Em 
To the floor, to the floor, hit the red line
D                    D         
Flying high, flying high at the speed of light
C                      C
Full of love, full of light, full of fight
           A           B
Cause I'm back, back, back from the dead tonight

   Em                                              Em
1)-15-15-15-15-15-15-15-15-14-14-14-14-14-14-14-14-12-12-12-12-12-12-12-12-------------------------
2)-------------------------------------------------------------------------12-12-12-12-12-12-12-12-

   D                                               D
1)-15-15-15-15-15-15-15-15-14-14-14-14-14-14-14-14-12-12-12-12-12-12-12-12-------------------------
2)-------------------------------------------------------------------------12-12-12-12-12-12-12-12-

   A                                               B                                               C
1)-15-15-15-15-15-15-15-15-14-14-14-14-14-14-14-14-17-17-17-17-17-17-17-17-15-15-15-15-15-15-15-15-19-
2)----------------------------------------------------------------------------------------------------
   Back,                   back,                   back     from   the    dead         tonight
   
Outro:
   Em     D   Em     G D  Em     D   Em     G D  Em     D   Em     G D  Em     D   Em     G D
4)-2-2--2-0---2-2--2-5-0--2-2--2-0---2-2--2-5-0--2-2--2-0---2-2--2-5-0--2-2--2-0---2-2--2-5-0-
5)-2-2--2-0---2-2--2-5-0--2-2--2-0---2-2--2-5-0--2-2--2-0---2-2--2-5-0--2-2--2-0---2-2--2-5-0-
6)-0-0--0-----0-0--0-3----0-0--0-----0-0--0-3----0-0--0-----0-0--0-3----0-0--0-----0-0--0-3---
    B-b--b-b-b--b--b--back B-b--b-b-b--b--b--back B-b--b-b-b--b--b--back B-b--b-b-b--b--b--back
                     Dead tonight    Back from the dead tonight    Dead tonight    Back from the dead tonight

Бой: V v ^ ^ v ^
comments powered by Disqus
Наверх