Аккорды Spice Girls - Say Youll Be There

Добавлено: @romashka
Дата добавления: 21 Февраля 2024г.
Рейтинг:
0.0
Просмотров: 69
Intro: (keyboard arranged for guitar)
  Gm              C               B               B
[e------------2---------------------------------------------------
B----------3-----5---3-------7---5---3-------3---3---------------
B4-------4-------4-----4-----4---4-----4-----0---2---------------
B4---------------6-----------6---6-----------0---0---------------
C2---------------------------------------------------------------
E----------------------------------------------------------------]

riff C: (keyboard arranged for guitar)
  Gm              C               B               B
[e----7-------5---------------------------------------------------
G0-------7-------5---3-0---5^7---5---3-----5^7---5---3-----3-2---
G--------------------------------------2-----------------2-----2-
D----------------------------------------------------------------
A----------------------------------------------------------------
E----------------------------------------------------------------]

Chords and lyrics:
Gm/C/B/B
(aah... say you'll be there)
Gm             C
I'm giving you everything
         B              B
All that joy can bring, this I swear
Gm         C
Last time that we had this conversation
B                B
I decided we should be friends
Gm             C
But now we're going 'round in circles
         B              B
Tell me will this deja-vu never end?
And now you tell me that you've fallen in love
Well I never ever thought that would be
This time you gotta take it easy
Throwing far too much emotions at me

riff G: (played over bridge)
  Cm              C
[e----------------------------------------------------------------
G8---------------7---------------6---------------5---5---5---5---
G--------9---------------7---------------7-------6---6---6---6---
D----------------------------------------------------------------
A----------------------------------------------------------------
E----------------------------------------------------------------]

         Gm
Bridge:  But any fool can see they're falling
         Cm            C 
I gotta make you understand

Gm             C
chorus:  I'm giving you everything
          B             B
All that joy can bring, this I swear
Gm              C
And all that I want from you
      B           B
Is a promise you will be there

riff C: (played over bridge 2)
  Gm              Gm              C
[e----7-------5-----------------------7-------5-------------------
G0-------7-------5---3-0---7~~~~~~-------7-------5~~~~~~~5^12----
G----------------------------------------------------------------
D----------------------------------------------------------------
A----------------------------------------------------------------
E----------------------------------------------------------------]

Bridge 2:
Gm C
Say you will be there
Gm -
Won't you say it with me?

If you put two and two together
You will see what our friendship is four
If you can't work this equation
Then I guess I'll have to show you the door

Bridge: (repeat riff G)
There is no need to say you love me
It would be better left unsaid

Chorus:
I'm giving you everything
All that joy can bring, this I swear
And all that I want from you
Is a promise you will be there
Yeah... I want you

Solo:    Gm/C/B/B
(Just play around, it shouldn't be too hard to get
the hang of it)

Bridge (repeat riff G)
     Gm
Any fool can see they're falling
         Cm            C
I gotta make you understand

(n.c.)
I'll give you everything, on this I swear
Just promise you'll always be there

Repeat chorus to fade  
Но если и музыка нас оставит, что будет тогда с нашим миром? (Гоголь)
Мы стремимся к созданию контента, соответствующего всем нормам законодательства и уважающего интеллектуальную собственность. Мы также придаем большое значение тому, чтобы не задеть никого и не оскорбить чьи-либо чувства. Если у вас есть вопросы или претензии по размещенному материалу, пожалуйста, сообщите нам об этом.
Шрифт
-
0
+
Прокрутка
-
0
+
Стоп
Наверх