Аккорды Сплин - Кофейня

Добавлено: @romashka
Дата добавления: 19 Декабря 2020г.
Рейтинг:
0.0
Просмотров: 27
Транспонировать - +
 Am A# Am A#
E----0-------1----
B------1-------1--
G-----2-2-----3-3-
D-----------------
A-0-0-----1-1-----
          Am 
Как шахтёр, покидающий свой забой,
Выходя из метро и любуясь Невским,
     A#
Пешеход разговаривает сам с собой,
Ибо разговаривать больше не с кем.

         Am 
Невский пуст, без пяти шесть утра,
Дует ветер, мёрзнут руки, лицо и шея.
     A#
Никого вокруг, сигарета у рта
Указывает направление движения.

         C
Невский пуст, он упал, он застыл, он в коме
Он лежит в объятиях самого Морфея.
  Dm
Больше всего на свете хочется кофе,
Подойдёт любая кофейня.

D#
Больше всего на свете хочется кофе,
Подойдёт любая кофейня.
Dm
Больше всего на свете хочется кофе
Подойдёт любая кофейня.

D#
Подойдёт любая кофейня,
Подойдёт любая кофейня.

Dm D# Dm D# Dm D# Dm D#
    Dm                 D#
E-----1-3-1-0-1-------3-5-3-2-3-
B----3----------3----4---------4
G---2---------------3-----------
D-0----------------1------------

Аккорды во вступлении играются по 4 раза, соответственно соло тоже. С D# в конце неудобно играть,так что можно такой проигрыш:
E----------------
B----8-10-8-7-8--
G---8----------8-
D--8-------------
A-6--------------
Наверх