Аккорды Stoppok - Wenn 2 (Zueinander Passen)

Добавлено: @romashka
Дата добавления: 26 Марта 2024г.
Рейтинг:
0.0
Просмотров: 40
Транспонировать - +
[Intro]
      G       D     Em      C                G       D     Em      C
e|--------------------------------------|--------------------------------------|
b|---0----------------------------------|---0----------------------------------|
g|-----0-----------0-0------------------|-----0-----------0-0------------------|
D|-----------4---------4---2-0----------|-----------4---------4---2-0----------|
A|-----------5-------------3------------|-----------5-------------3------------|
E|---3-------------0--------------------|---3-------------0--------------------|

G  D  Em  C      G  D  Em  C

[Verse 1]
     G            D            Em                    C     C
Wenn 2 zueinander passen, dann werden sie nicht viel vermissen
          G             D               Em                C     C
Für die einen leicht zu fassen, für die andern schwer zu wissen
D                                            Am
  Sie könnten wie 2 Spiegel sein, die sich gegenseitig reflektier'n,
D                                     Am
Der eine für den anderen eine Art von Therapie auf Herz und Nier'n.
D                                             Am                Em
Passiert nicht allzu oft mein Freund, darauf kannst du dich verlassen
D                    C       C
  Dass 2 zueinander passen

[Bridge]
      G       D     Em      C                G       D     Em      C
e|--------------------------------------|--------------------------------------|
b|---0----------------------------------|---0----------------------------------|
g|-----0-----------0-0------------------|-----0-----------0-0------------------|
D|-----------4---------4---2-0----------|-----------4---------4---2-0----------|
A|-----------5-------------3------------|-----------5-------------3------------|
E|---3-------------0--------------------|---3-------------0--------------------|

[Verse 2]
     G            D            Em             C     C
Wenn 2 zueinander passen, wie sollten sie vergessen
    G               D                    Em                     C     C
Der eine könnte in Australien sein, der andere in Hamburg oder Essen
D                                         Am
Sie müssen nicht so tun als wär'n sie ein wunderbares Paar.
D                                       Am
Wenn and're dabei zu sehen, gern, aber lieber nicht zu nah.
D                                    Am              Em
Zwischen tun als ob und sein wär ein Unterschied von Klassen,
D                    C       C
  wenn 2 zueinander passen

[Bridge]
      G       D     Em      C                G       D     Em      C
e|--------------------------------------|--------------------------------------|
b|---0----------------------------------|---0----------------------------------|
g|-----0-----------0-0------------------|-----0-----------0-0------------------|
D|-----------4---------4---2-0----------|-----------4---------4---2-0----------|
A|-----------5-------------3------------|-----------5-------------3------------|
E|---3-------------0--------------------|---3-------------0--------------------|

[Verse 3]
     G            D            Em               C     C
Wenn 2 zueinander passen, dann fördern sie das Beste
    G           D       Em          C     C
vom anderen zu Tage und weniger die Reste
D                                   Am
von irgendwelchem alter Kram, sowas hätten sie im Griff.
D                                  Am
Sowas würde kleiner werden, wie am Horizont das Riff.
D                               Am             Em
Gescheiterte Beziehung, oh, wie würden die verblassen
D                    C       C
  wenn 2 zueinander passen


[Solo]
G  D  Em  C      G  D  Em  C

[Verse 4]
     G            D             Em            C     C
Wenn 2 zueinander passen, geht niemand in die Knie
G                    D                Em   C     C
außer vielleicht vor Dankbarkeit, oh, süße Melodie.
     D                                  Am
Sie werden auf 100 Meilen riechen, wenn irgendwas nicht stimmt.
     D                                        Am
und keineswegs zu Kreuze kriechen, wenn der andere zuviel nimmt.
      D                                      Am           Em
Und wenn sich wer dazwischenschleicht, dann werden sie's erfassen
            D            C       C
mmh,   wenn 2 zueinander passen

[Interlude]

moll

[Bridge]
      G       D     Em      C                G       D     Em      C
e|--------------------------------------|--------------------------------------|
b|---0----------------------------------|---0----------------------------------|
g|-----0-----------0-0------------------|-----0-----------0-0------------------|
D|-----------4---------4---2-0----------|-----------4---------4---2-0----------|
A|-----------5-------------3------------|-----------5-------------3------------|
E|---3-------------0--------------------|---3-------------0--------------------|

[Verse 5]
     G            D             Em            C     C
Wenn 2 zueinander passen, was würdest du dafür geben?
G        D              Em               C     C
20 Cent Trinkgeld oder Jahre von deinem Leben?
     D                             Am
Wenn 2 zueinander passen, wie die Segel und das Boot.
     D                                    Am
Dann können sie ihre Tage färben mit 'ner heiter sanften Glut.
    D                                    Am              Em
sie können überhaupt alles tun, doch sie können es auch lassen
          D            C       C
mmh, wenn 2 zueinander passen

[Bridge]
      G       D     Em      C                G       D     Em      C      G
e|--------------------------------------|----------------------------------3----|
b|---0----------------------------------|---0------------------------------3----|
g|-----0-----------0-0------------------|-----0-----------0-0--------------0----|
D|-----------4---------4---2-0----------|-----------4---------4---2-0------0----|
A|-----------5-------------3------------|-----------5-------------3--------2----|
E|---3-------------0--------------------|---3-------------0----------------3----| 
Наверх