Аккорды Sum 41 - The Fall & The Rise

Добавлено: @romashka
Дата добавления: 29 Апреля 2018г.
Рейтинг:
0.0
Просмотров: 59
Транспонировать - +
Intro:
1)-14--------------------14--------------------14----------------------------------------
2)------14---15---14----------14---15---14----------14---15---14-----17---15---14---15---
3)---------------------------------------------------------------------------------------
4)---14---14---14---14-----14---14---14---14-----14---14---14---14-----14---14---14---14-

Verse:
               F#m                    
Hanging by a thread now, my head's down
    F#m 
Not feeling like myself now
     D                Bm                
The voices inside my head are getting too loud
            D              E 
(Screaming louder than a thousand drums)
        Bm                      D          E 
I keep counting the days and I can't stop now
             F#m
And I won't break down, I'm too proud
       F#m
Let's give them shit to talk about
      D                          Bm   
The pressure, the weight of the world won't keep me down
       D               E 
(This time I'm taking back what's mine)
             Bm                     D           E 
It's been a long time coming and I just won't stop  

1)-14--------------------14--------------------14----------------------------------------
2)------14---15---14----------14---15---14----------14---15---14-----17---15---14---15---
3)---------------------------------------------------------------------------------------
4)---14---14---14---14-----14---14---14---14-----14---14---14---14-----14---14---14---14-
(Won't stop)

Go!

Chorus:
F#m          A
Go ahead then try to break me
E                B  
Like a rat in a race until the dawn
F#m          A   
Go ahead then make them pay
         E                  B             F#m           
It's time to take back the place where I belong
   
3)-11-11-11-11-11-11-11-11--14-14-14-14-13-13-13-13--9-9-9-9-9-9-9-9--14-14-14-14-16-16-16-16-
4)-x--x--x--x--x--x--x--x---x--x--x--x--x--x--x--x---x-x-x-x-x-x-x-x--x--x--x--x--x--x--x--x--
5)-9--9--9--9--9--9--9--9---12-12-12-12-11-11-11-11--7-7-7-7-7-7-7-7--12-12-12-12-14-14-14-14-
   v  ^  v  ^  v  ^  v  ^   v  ^  v  ^  v  ^  v  ^   v ^ v ^ v ^ v ^  v  ^  v  ^  v  ^  v  ^

1)-14--------------------14--------------------14----------------------------------------
2)------14---15---14----------14---15---14----------14---15---14-----17---15---14---15---
3)---------------------------------------------------------------------------------------
4)---14---14---14---14-----14---14---14---14-----14---14---14---14-----14---14---14---14-

Verse:
       F#m                          
So, I'm done will all the chasing, 
    F#m
I'm giving up on wasting
D                             Bm
All my time with you, now I'm looking for salvation
     D                            E
I'm done with all the fake shit, getting hard to fake it
      Bm                          D                 E           
Cause I can't take it anymore so give me something sacred
             F#m
I played the part of the villain 
        F#m 
But no apologies given
              D                            Bm     
I came right back to the start, and it's about time for living
              D                                  E
I've been to hell and back still, I've paid the devil his bills
            Bm                              D               E
And now I'm coming back stronger, and I'm shooting just to kill
      
1)-14--------------------14--------------------14----------------------------------------
2)------14---15---14----------14---15---14----------14---15---14-----17---15---14---15---
3)---------------------------------------------------------------------------------------
4)---14---14---14---14-----14---14---14---14-----14---14---14---14-----14---14---14---14-
(Just to kill)

Chorus:
F#m          A
Go ahead then try to break me
E                B 
Like a rat in a race until the dawn
F#m          A   
Go ahead then make them pay
         E                  B             F#m           
It's time to take back the place where I belong
   
3)-11-11-11-11-11-11-11-11--14-14-14-14-13-13-13-13--9-9-9-9-9-9-9-9--14-14-14-14-16-16-16-16-
4)-x--x--x--x--x--x--x--x---x--x--x--x--x--x--x--x---x-x-x-x-x-x-x-x--x--x--x--x--x--x--x--x--
5)-9--9--9--9--9--9--9--9---12-12-12-12-11-11-11-11--7-7-7-7-7-7-7-7--12-12-12-12-14-14-14-14-
   v  ^  v  ^  v  ^  v  ^   v  ^  v  ^  v  ^  v  ^   v ^ v ^ v ^ v ^  v  ^  v  ^  v  ^  v  ^
                                                                      The place where I belong

3)-11-11-11-11-11-11-11-11--14-14-14-14-13-13-13-13--9-9-9-9-9-9-9-9--14-14-14-14-16-16-16-16-
4)-x--x--x--x--x--x--x--x---x--x--x--x--x--x--x--x---x-x-x-x-x-x-x-x--x--x--x--x--x--x--x--x--
5)-9--9--9--9--9--9--9--9---12-12-12-12-11-11-11-11--7-7-7-7-7-7-7-7--12-12-12-12-14-14-14-14-
   v  ^  v  ^  v  ^  v  ^   v  ^  v  ^  v  ^  v  ^   v ^ v ^ v ^ v ^  v  ^  v  ^  v  ^  v  ^
                                                                      The place where I belong
                                                                        
Bridge:
                    F#m 
The place where I belong
                    A
And fade into the stars
                    D
The race until the dawn
                  Bm  
And I just wanna take my place
                    F#m 
The place where I belong
                    A
And fade into the stars
                    D
The race until the dawn
                  Bm  
And I just wanna take my place
                  F#m
The place where I belong

1)-14--------------------14--------------------14----------------------------------------
2)------14---15---14----------14---15---14----------14---15---14-----17---15---14---15---
3)---------------------------------------------------------------------------------------
4)---14---14---14---14-----14---14---14---14-----14---14---14---14-----14---14---14---14-
(Won't stop)

Go!

Chorus:
F#m          A
Go ahead then try to break me
E                B 
Like a rat in a race until the dawn
F#m          A   
Go ahead then make them pay
         E                  B         
It's time to take back the place where I belong

F#m          A
Go ahead then try to break me
E                B 
Like a rat in a race until the dawn
F#m          A   
Go ahead then make them pay
         E                  B             F#m           
It's time to take back the place where I belong

3)-11-11-11-11-11-11-11-11--14-14-14-14-13-13-13-13--9-9-9-9-9-9-9-9--14-14-14-14-16-16-16-16-
4)-x--x--x--x--x--x--x--x---x--x--x--x--x--x--x--x---x-x-x-x-x-x-x-x--x--x--x--x--x--x--x--x--
5)-9--9--9--9--9--9--9--9---12-12-12-12-11-11-11-11--7-7-7-7-7-7-7-7--12-12-12-12-14-14-14-14-
   v  ^  v  ^  v  ^  v  ^   v  ^  v  ^  v  ^  v  ^   v ^ v ^ v ^ v ^  v  ^  v  ^  v  ^  v  ^
                                                                      The place where I belong

3)-11-11-11-11-11-11-11-11--14-14-14-14-13-13-13-13--9-9-9-9-9-9-9-9--14-14-14-14-16-16-16-16-
4)-x--x--x--x--x--x--x--x---x--x--x--x--x--x--x--x---x-x-x-x-x-x-x-x--x--x--x--x--x--x--x--x--
5)-9--9--9--9--9--9--9--9---12-12-12-12-11-11-11-11--7-7-7-7-7-7-7-7--12-12-12-12-14-14-14-14-
   v  ^  v  ^  v  ^  v  ^   v  ^  v  ^  v  ^  v  ^   v ^ v ^ v ^ v ^  v  ^  v  ^  v  ^  v  ^
                                                                      The place where I belong

Outro:
1)-14--------------------14--------------------14----------------------------------------
2)------14---15---14----------14---15---14----------14---15---14-----17---15---14---15---
3)---------------------------------------------------------------------------------------
4)---14---14---14---14-----14---14---14---14-----14---14---14---14-----14---14---14---14-

Бой Verse: V v ^ ^ v ^  V v ^ ^ v ^. Chorus: V v ^ ^ v ^. Bridge: V v ^ ^ v v v ^. 
comments powered by Disqus
Наверх