Аккорды Телевизор - Товарищ Сухов

Добавлено: @romashka
Дата добавления: 31 Октября 2018г.
Рейтинг:
0.0
Просмотров: 14
Транспонировать - +
"Товарищи женщины, не бойтесь. С Вашим 
мужем-эксплуататором мы покончим. 
А пока Вы поступаете в распоряжение 
товарища Сухова. Он будет Вас кормить и защищать. 
Он хороший человек."

Вступление:
   G#m          D#m         A#(VI)       D#m
e|-------4------------6-----------6------------6-----
b|-----4---4--------7---7-------6---6--------7---7---
g|---4-------4----8------8----7-------7----8-------8-
d|---------------------------------------------------
a|--------------6------------------------6-----------
e|-4------------------------6--------------------3-3-

   G#m          D#m         A#(VI)       
e|-------4------------6-----------6-------
b|-----4---4--------7---7-------6---6-----
g|---4-------4----8------8----7-------7---
d|----------------------------------------
a|--------------6-----------------------4-
e|-4------------------------6-------------

D#m }x8

A#m F#
      Товарищ Сухов!
A#m F#
      Товарищ Сухов!
A#m F#
      Товарищ Сухов!
A#m F#
      Товарищ...

Проигрыш: G(III) G#
          Am E Am E
          F Dm E F Dm E
          D#m }x4

A#m F#
      Товарищ Сухов!
A#m F#
      Товарищ Сухов!

Проигрыш:
 D#m          A#m        F#             C#       F#
e|-------7-6-6-----------------6-11-11h9---9-7-7-6-
b|----4-7---------7-6-6-4---7-7-----------6--------
g|-3-3---------3-3---------6-----------------------
d|-------------------------------------------------
a|-------------------------------------------------
e|-------------------------------------------------

G#m            C#     F#   G#m   D#m   A#(VI)
e|--------------9-9-7-6--------9-7-7-6----------
b|--------------------------4-4-----------------
g|--------------------------------------3-3-3-3-
d|----------------------------------------------
a|----------------------------------------------
e|----------------------------------------------
Ать-два, ать-два       – эх!

Проигрыш: D#m }x4

A#m F#
      Товарищ Сухов!
A#m F#
      Товарищ Сухов!

Проигрыш: G(III) G#

Am E
    "Аристарх, договорись с таможней!"
Am E
    "Абдулла, таможня дает добро!"
F Dm E
    "Верещагин, уходи с баркаса, взорвешься!"
F Dm E
    "Белое солнце пустыни..."

Проигрыш: D#m }x4

A#m F#
      Товарищ Сухов!
A#m F#              A#m F#
      Товарищ Сухов!
comments powered by Disqus
Наверх