Аккорды Tenacious D - Wonderboy

Добавлено: @romashka
Дата добавления: 04 Ноября 2015г.
Рейтинг:
0.0
Просмотров: 148
Транспонировать - +
-10----10----10----10-12-12b13r12-10------------------15p14p12-15p14p12-------|
----10----10----10-------------------10-10h11-10-8-10-------------------------|
------------------------------------------------------------------------------|
------------------------------------------------------------------------------|
------------------------------------------------------------------------------|
------------------------------------------------------------------------------|


-15p14p12-15p14p12-15p14p12-15p14p12-15p14p12-15p14p12-17-15-14-12-14-12-10---|
------------------------------------------------------------------------------|
------------------------------------------------------------------------------|
------------------------------------------------------------------------------|
------------------------------------------------------------------------------|
------------------------------------------------------------------------------|


-12-10-8-10-8-6h8-6h8-8b10r8-6h8/10-------------------------------------------|
------------------------------------------------------------------------------|
------------------------------------11-11-9-7-9/11-11-9-7-9-7-6-4-2-0-2-4-6---|
------------------------------------------------------------------------------|
------------------------------------------------------------------------------|
------------------------------------------------------------------------------|


------------------------------------------------------------------------------|
------------------------------------------------------------------------------|
-7-6-4-2-7--------------------------------------------------------------------|
------------------------------------------------------------------------------|
------------------------------------------------------------------------------|
------------------------------------------------------------------------------|
comments powered by Disqus
Наверх