Аккорды The Beatles - Because

Добавлено: @romashka
Дата добавления: 24 Марта 2013г.
Рейтинг:
0.0
Просмотров: 227
Транспонировать - +
E||-------0---------|-------0--------|-----------|-------------|
B||-----1---1-------|-----1---1------|---2-4-2---|---1-4-1-----|
G||---2-------2---2-|---2-------2---2|-2-------2-|-1-------1-1-|
D||-1-----------2-4-|-1--------------|-----------|-------------|
A||-4-----------4---|-4-----------4--|-----------|-------------|
E||-------------4---|

E|--------0---------|-------0---------|-------3--------|-----2-|
B|------2---2-------|-----1---1-------|-----2---2------|-------|
G|----2-------2---2-|---2-------2---2-|---0-------0--0-|--0----|
D|--------2---------|-1-----------2---|----------------|-------|
A|--0---------------|-4-----------4---|-0--------------|-------|
E|------------------|

E|-------2---------|-------2-1-------||
B|-----3---3-------|-----3-----------||
G|---2-------2---2-|---4-----------o-||
D|-0-----------4---|-0-------------o-||
comments powered by Disqus
Наверх