Аккорды The Beatles - Everybody's Got Something To Hide Except For Me And My Monkey

Добавлено: @romashka
Дата добавления: 24 Марта 2013г.
Рейтинг:
0.0
Просмотров: 200
Транспонировать - +
Intro:
E|--4--5--9-----4--5--9-----4--5--9-----4--5--9--|
B|--5--5--10----5--5--10----5--5--10----5--5--10-|
G|--4--4--9-----4--4--9-----4--4--9-----4--4--9--|
D|-----------------------------------------------|
A|-----------------------------------------------|
E|-----------------------------------------------|

Verse:
 E
Come on, come on, come on, come on

Come on it`s such a joy, come on, it`s such a joy

Come on let`s make it easy, come on let`s make it easy
         A             D
Make it easy, make it easy
      B7                                       E  D  G  E  G  D
Everybody`s got something to hide except for me and my monkey

E|------------------------------------------------|
B|------------------------------------------------|
G|------------------------------------------------|
D|-----5--------7--5-------------------------etc.-|
A|--7-----5--7-----------5--7--7b(9)--5--7---etc.-|
E|--------------------7----------------------etc.-|

   A
E|------------------------------------------------|
B|------------------------------------------------|
G|------------------------------------------------|
D|------------------------------------------------|
A|-7--7--9--9--7--7--9--9--7--7--9--9--7--7--9--9-|
E|-5--5--5--5--5--5--5--5--5--5--5--5--5--5--5--5-|
   Take it easy

   D
E|------------------------------------------------|
B|------------------------------------------------|
G|------------------------------------------------|
D|-7--7--9--9--7--7--9--9--7--7--9--9--7--7--9--9-|
A|-5--5--5--5--5--5--5--5--5--5--5--5--5--5--5--5-|
E|------------------------------------------------|
   Take it easy

   B7
E|------------------------------------------------|
B|------------------------------------------------|
G|------------------------------------------------|
D|-4--4--6--6--4--4--6--6--4--4--6--6--4--4--6--6-|
A|-2--2--2--2--2--2--2--2--2--2--2--2--2--2--2--2-|
E|------------------------------------------------|
   Everybody`s got something to hide except for me and my ...

    E       D                G     E         G             D
E|---------10b(12)--b(12)10----------------15b(17)-b(17)15-----|
B|-/10---8-------------------8~-b(17)15-12---------------------|
G|-----9---------------------------------------------------14~-|
D|-------------------------------------------------------------|
A|-------------------------------------------------------------|
E|-------------------------------------------------------------|
 ..Monkey

What a great tune to jam with.
comments powered by Disqus
Наверх