Аккорды The Beatles - For You Blue

Добавлено: @romashka
Дата добавления: 24 Марта 2013г.
Рейтинг:
0.0
Просмотров: 244
Транспонировать - +
E|-----------------------------------------------2--2-2--2-----|
B|-----------------------------------------------1--1-1--1-----|
G|--------------------------------------------2--2--2-2--2-----|
D|------2p0-----------2--2-2--2-2--2-------------0--0-0--0-----|
A|--------------0--2--0--0-0--0-0--0---------------------------|
E|---0-------3------------------------0--1--2------------------|

E|---------2--2-2--2-2--2-----0--------0---------0-------0-----|
B|---------0--0-0--0-0--0----------3-------3---------3-------3-|
G|---------2--2-2--2-2--2-0h1----------------0h1---------------|
D|-------1-1--1-1--1-1--1--------------------------------------|
A|-0-1-2---2--2-2--2-2--2--------------------------------------|
E|------------------------------0----0---0---------0---0---0---|

Then into:
A D  A
D    A
E D  A  E7
comments powered by Disqus
Наверх