Аккорды The Beatles - Hey Bulldog

Добавлено: @romashka
Дата добавления: 24 Марта 2013г.
Рейтинг:
0.0
Просмотров: 307
Транспонировать - +
Intro part
E|-------------------------------------------------|
B|-------------------------------------------------|
G|-------------------------------------------------|
D|--------------2-----3--4--------------4-----3--2-|
A|--2--2--5--2-----2--------2--2--5--2-----2-------|
E|-------------------------------------------------|
repeat

there is no guitar during the verse, but this is a guitar
version of the piano chords:
   B7  F#m  B7  F#m  A   F#m  E   E7  A   F#m  B7
E|--2---2----2---2---0----2----0---0---0---2----2--|
B|--4---2----4---2---2----2----0---3---2---2----4--|
G|--2---2----2---2---2----2----1---1---2---2----2--|
D|--4---4----4---4---2----4----2---2---2---4----4--|
A|--2---4----2---4---0----4----2---2---0---4----2--|
E|------2--------2--------2----0---0-------2-------|

  "you can talk to..." (the patented James Bond chords)
    Bm   Bm(#5)  Bm6  Bm7  Em  Em(#5)  Em6  Em7  Bm   Em
E|--------------------------0---0-------0----0----2----0--|
B|--------------------------0---1-------2----3----3----0--|
G|---7-----7------7-----7---0---0-------0----0----4----0--|
D|---9-----9------9-----7---2---2-------2----2----4----2--|
A|---9-----10-----11----9---2---2-------2----2----2----2--|
E|---7-----7------7-----7---0---0-------0----0---------0--|

solo
E|----------------------------------------------------|
B|-12--12--12--12--12--12--12--12------------------4--|
G|-------------------------------------------------4--|
D|--9---9---9---9---9---9---9---9---------------4-----|
A|----------------------------------9---2--/6---------|
E|----------------------------------------------------|

E|--------------------|
B|--2--2--2--2--4--5--|
G|--2--2--2--2--4--6--|
D|--------------------|
A|--------------------|
E|--------------------|
repeat

E|---------------------------------4------12--12--12--12--12-|
B|--5--5--3--2--2--2--3--2------3-----3----------------------|
G|--6--6--4--2--2--2--4--2--/4-------------------------------|
D|-----------------------------------------------------------|
A|-----------------------------------------------------------|
E|-----------------------------------------------------------|

E|--------------------------------------------------------|
B|--5--5--3--2--2--2--3--2--4--4--4--4--4--7--7--7--7--7--|
G|--6--6--4--2--2--2--4--2--4--4--4--4--4--8--8--8--8--8--|
D|--------------------------------------------------------|
A|--------------------------------------------------------|
E|--------------------------------------------------------|

fade out part
E|----------------------------------------------------|
B|----------------------------------------------------|
G|----------------------------------------------------|
D|--------------2----3--4-----------------------------|
A|--2--2--5--2----2--------------------4-----3--2-----|
E|-------------------------2--2--5--2-----2--------5--|
repeat
comments powered by Disqus
Наверх