Аккорды The Beatles - She Said She Said

Добавлено: @romashka
Дата добавления: 24 Марта 2013г.
Рейтинг:
0.0
Просмотров: 219
Транспонировать - +
Intro riff :

E|------------------------|
B|------2h3--2h3--2h3-5---|
G|--2h4-----------------2-|
D|------------------------|
A|------------------------|
E|------------------------|

What I have for the chords is :

 A      G D                  A             G D
The said   I know what it`s like  to be dead I know what it...

Basically it`s these three chords for nearly the whole song, apart from :

              Em A7              D   A7             D
When I was a boy   e`thing was right   e`thing was right

And that`s it.

As for the instruments: one guitar plays the chords, with a cleanish sound

The second electric plays lead parts which sometimes echo the tune, but this
guitar also plays the riff that comes after ` making me feel like I`ve never
been born`:

E|---------------------------|
B|---------------------------|
G|---4b6r4-2--4--0-----0---2-|
D|-------------------2---2---|
A|---------------------------|
E|---------------------------|
comments powered by Disqus
Наверх