Аккорды The Beatles - Ticket to Ride

Добавлено: @romashka
Дата добавления: 24 Марта 2013г.
Рейтинг:
0.0
Просмотров: 350
Транспонировать - +
During the intro and the verse he plays this:

E|------0-----------0-|
B|---------2-----0----|
G|-2----------2-------|
D|--------------------|
A|--------------------|
E|--------------------|

When he says "Away" from the line "Goin` away, yea"
you strum this

E|---2----2-2---2--2---0----0-0---0--0-|
B|---3----3-3---3--3---0----0-0---0--0-|
G|---4----4-4---4--4---1----1-1---1--1-|
D|---4----4-4---4--4---2----2-2---2--2-|
A|---2----2-2---2--2---2----2-2---2--2-|
E|---------------------0----0-0---0--0-|

CHORUS:

   "She`s got a ticket to ride,  She`s got a ticket to ri-i-i-de

E|---2---------------------2-----------2---------------------2-|
B|---2---------------------3-----------2---------------------2-|
G|---2---------------------2-----------2---------------------2-|
D|---4---------------------0-----------4---------------------0-|
A|---4---------------------------------4-----------------------|
E|---2---------------------------------2-----------------------|

    "She`s got a ticket to ride, and she don`t care

E|-2---------------------0-|
B|-2---------------------0-|      On "Care" go back to the main
G|-2---------------------1-|      riff
D|-4---------------------2-|
A|-4---------------------2-|
E|-2---------------------0-|

On the bridge it`s just D7 and E

  "Don`t know why......High................"

E|--2-------------------0-|
B|--1-------------------0-|
G|--2-------------------1-|
D|--0-------------------2-|
A|----------------------2-|
E|----------------------0-|

riff at the end of the bridge:

E|-------------------10------12b---10--12-|
B|--10b-------10s12------12---------------|
G|------12--9-----------------------------|
comments powered by Disqus
Наверх