Аккорды The Beatles - Two of Us

Добавлено: @romashka
Дата добавления: 24 Марта 2013г.
Рейтинг:
0.0
Просмотров: 249
Транспонировать - +
 Intro:
    (no chord)
 -|-----7-----7~--7-----------7-----7~--7-----------------------
 -|-------------------------------------------------------------
 -|--7-----7---------7--9--7-----7---------7--9-----------------
 -|-------------------------------------------------------------
 -|-------------------------------------------------------------
 -|-------------------------------------------------------------

      G
 -|-------------------------------------------------------------
 -|-------------------------------------------------------------
 -|-------------------------------------------------------------
 -|----------5---------------5-----5---------------5------------
 -|------------------5--5/7----------------5--5/7---------------
 -|---3---------5/7-------------3-----5/7-----------------------


 Verse:
     G
 -|-------------------------------------------------------------
 -|-------------------------------------------------------------
 -|-------------------------------------------------------------
 -|----------5---------------5-----5---------------5-----5------
 -|------------------5--5/7----------------5--5/7---------------
 -|---3---------5/7-------------3-----5/7-------------3---------
     Two of us  ri-----ding nowhere  spen----ding  someone`s

     C     Bm     Am7
 -|-------------------------------------------------------------
 -|-------------------------------------------------------------
 -|-------------------------------------------------------------
 -|-------------------------------------------------------------
 -|--3--3--2--2---0-----0---------------------------------------
 -|------------------3-----3--2---------------------------------
    Hard   earned pay

     G
 -|-------------------------------------------------------------
 -|-------------------------------------------------------------
 -|-------------------------------------------------------------
 -|----------5---------------5-----5---------------5-----5------
 -|------------------5--5/7----------------5--5/7---------------
 -|---3---------5/7-------------3-----5/7-------------3---------
     You and me Sun-----day   driving not     ar------riving

     C     Bm     Am7             G              D
 -|-------------------------------------------------------------
 -|-------------------------------------------------------------
 -|-------------------------------------------------------------
 -|-------------------------------------------------------------
 -|--3--3--2--2---0-----0------------------2--3--5--------------
 -|------------------3-----3--2---3--2--3-----------------------
    On     our    way      back  home
comments powered by Disqus
Наверх