Аккорды The Beatles - Flying

Добавлено: @vitos
Дата добавления: 04 Сентября 2015г.
Рейтинг:
0.0
Просмотров: 156
Транспонировать - +
Horn Solo

e--------------------------------------------------------|
B--------------------------------------------------------|
G----------7-9~~~----------7-9h10p9~~~-------------------|
D-----9-10------------9-10----------------9-10-9-7~~~----|
A--10--------------10-------------------8----------------|
E--------------------------------------------------------|


e--------------------------------------------------------|
B--------------------------------------------------------|
G----------7-9~~~----------------------------------------|
D-----9-10----------9~~~-7~~~----------------------------|
A--10-------------------------10~~~-8~~~-----------------|
E--------------------------------------------------------|
comments powered by Disqus
Наверх