Аккорды The Beatles - You Never Give Me Your Money

Добавлено: @vitos
Дата добавления: 22 Сентября 2015г.
Рейтинг:
0.0
Просмотров: 253
Транспонировать - +
Intro:

E|---0-0-0-0-0--0-------------------------|
H|----------------3---3------3-3-3-3-3-3--|
G|----------------2-2---2-----------------|     
D|--------------0-0-----------------------|
A|-0------0-------------------------------|
E|-------------------------3--------3-----|

|-1-0---------------------------------0--|
|-----1------1-1-1-1-1--3-1-0------------|
|-------0---------------------2-1--2-----|
|----------------------------------------| > 2 times
|-3---3-3--------------------------0--0--|
|---------1------1-----0-----------------|


Am                     Dm        
You never give me your money
G                       C
You only give me your funny paper
F                        E
and in the middle of negotiations
Am
you break down

I never give you my number
I only give you my situation
and in the middle of investigation
I break down

C                        E
Out of college, money spent
Am             C7
See no future, pay no rent
F               G              C
All the money\'s gone, nowhere to go

Any jobber got the sack
Monday morning, turning back
Yellow lorry slow, nowhere to go

 B                         F            C
But oh, that magic feeling, nowhere to go
 B                     F
Oh, that magic feeling

C
Nowhere to go

Bridge: B F C > 3 times

A(V)          H(VII)
One sweet dream
C(VIII)               E                A(V)
Pick up the bags and get in the limousine
Dm             G  
Soon we\'ll be away from here
Dm             G
Step on the gas and wipe that tear away
A(V)          H(VII)
One sweet dream came true today

 C    Em7  A
Came true today
Came true today (yes it did)
Came true today
Came true today

C         
One two three four five six seven,
A                                      
All good children go to Heaven > 4 times

   C     Em7        A
E|------------------------5--|
H|-------------0----------2--|
G|-----0-----0---0------2----|
D|---2-----0----------2------|
A|-3-----2----------0--------|
E|---------------------------|
comments powered by Disqus
Наверх