Аккорды The Lemon Twigs - Let's Do Another Run of It/ The Beginning of the Album

Добавлено: @romashka
Дата добавления: 18 Марта 2024г.
Рейтинг:
0.0
Просмотров: 40
Транспонировать - +
[Intro 2x]
e|-------------------------------------------------------|
B|-----4------4h6p4---4------4h6p4-----------------------|
G|-3-6--------------6--------------6-3------3h6p3---3----|
D|------------------------------------------------6------|
A|-------------------------------------------------------|
E|-------------------------------------------------------|

G|-------------------------------------------------11----|
D|-----------------------------------------------11------|
A|-----6--------------6----------6-8-9-------------------|
E|-6-9--------------6------------------------------------|

[Vocals start]
      Ebm                           Gb
Ah ah aaaah aah ah ah aaah ah ah ah aaah   aah aah
      Ebm                           Gb
Ah ah aaaah aah ah ah aaah ah ah ah aaah   aah aah
      Ebm                           Gb
Ah ah aaaah aah ah ah aaah ah ah ah aaah   aah aah
      Ebm                           Gb
Ah ah aaaah aah ah ah aaah ah ah ah aaah   aah aah

[Keyboard solo]
Ebm   Gb
Ebm   Gb  
Наверх