Аккорды The Notwist - Trashing Days

Добавлено: @romashka
Дата добавления: 04 Января 2024г.
Рейтинг:
0.0
Просмотров: 95
Intro (0:00)

e-------------------|-----------------|
b-------------------|-----------------|
g-------------------|-----------------| 
d------7---7-5------|----7---7-5------| x2
a----------------7--|------------5-7--|
e--5-5---5-----5----|--5---5----------|

e----------------|------------------|
b----------------|------------------|
g----------------|------------------|
d----7---7-5-----|----7----7-5------|
a-------------7--|-------------7-5--|
e--5---5---------|--5---5-----------|

e----------------|------------------|
b----------------|------------------|
g----------------|------------------|
d----7---7-5-----|----7----7-5------|
a-------------7--|-------------5-7--|
e--5---5---------|--5---5-----------|

Verse (0:20)

A           D             A
Then I come in, they go mad
            D           A
Hit my nose and hit my back
          F               D  
Break my every single bone
          C                B
Throw me out just like a stone

Verse (0:44)

A           D              A
It's the corner, it's the dress
          D                A
Small the town and big the mess
         F                 D  
That I cause with every step
             C          D
But still I walk, nonetheless

Chorus (1:08)

G                    Am
They're skipping backwards
                      Dm   C
They're thrashing days
        D                         Em 
Is that all they're believing in?

Chorus (1:27)

G                    Am
They're skipping backwards
                      Dm   C
They're thrashing days
        D                         Em 
Is that all they're believing in?

Verse (1:46)

A               D             A
It won't change, so come with me
           D                A
Just with your eyes I will see
          F                    D  
Just with your arms I can hold
           C                D
And keep away them dump and cold

Chorus (2:10)

G                    Am
They're skipping backwards
                      Dm   C
They're thrashing days
        D                         Em 
Is that all they're believing in?
         F                  D
Smash my head to make it spin

Chorus (2:34)

G                    Am
They're skipping backwards
                      Dm   C
They're thrashing days
        D                         Em 
Is that all they're believing in?
          F                   D
Smash my head to make it spin

Outro (2:58)

e---------------------------------|
b------5---5----------------------|
g------------7----5----7--7--5----|
d------------------------------7--|
a---------------------------------|
e--5-5---5------5---5------5------|

Coda (3:03)

e-----4-5------4-6--|
b-------------------|
g-------------------|
d-------------------|
a--0--------0-------|
e-------------------|		
Музыка - прекрасный способ стирания мыслей, плохих и не очень, самый лучший и самый давний (Мариам Петросян)
Мы стремимся к созданию контента, соответствующего всем нормам законодательства и уважающего интеллектуальную собственность. Мы также придаем большое значение тому, чтобы не задеть никого и не оскорбить чьи-либо чувства. Если у вас есть вопросы или претензии по размещенному материалу, пожалуйста, сообщите нам об этом на указанный адрес электронной почты: [email protected].
Шрифт
-
0
+
Прокрутка
-
0
+
Стоп
Наверх