Аккорды The Rolling Stones - Paint It Black

Добавлено: @romashka
Дата добавления: 12 Сентября 2022г.
Рейтинг:
0.0
Просмотров: 28
Транспонировать - +
Intro:

E  -------0---1---3---1---0-------------------0--------0-----------
B  ---3-----------------------3---3---2---3-----0h2h3h---3p2p0p2p--
G  -----------------------------2---2---2---2----------------------
D  -0---0---0---0---0---0---0--------------------------------------

Dm

Dm               A
I see a red door and I want it painted black
Dm              A
No colours anymore I want them to turn black
Dm  C     F      C        Dm
I see the girls walk by dressed in their summer clothes
Dm   C    F    C     G         A
I have to turn my head until my darkness goes

Dm               A
I see a line of cars and they're all painted black
Dm               A
With flowers and my love both never to come back
Dm  C     F      C        Dm
I see people turn their heads and quickly look away
Dm   C    F    C     G         A
Like a new born baby it just happens every day

Dm               A
I look inside myself and see my heart is black
Dm               A
I see my red door and I want it painted black
Dm  C     F      C        Dm
Maybe then I?ll fade away and not have to face the facts
Dm   C    F    C     G         A
It?s not easy facing up when your whole world is black

Dm               A
No more will my green sea go turn a deeper blue
Dm               A
I could not foresee this thing happening to you
Dm  C     F      C        Dm
If I look hard enough into the setting sun
Dm   C    F    C     G         A
My love will laugh with me before the morning comes

Dm               A
I see a red door and I want it painted black
Dm               A
No colours anymore I want them to turn black
Dm  C     F      C        Dm
I see the girls walk by dressed in their summer clothes
Dm   C    F    C     G         A
I have to turn my head until my darkness goes


Solo:

e  -------0---1---3---1---0--------------------0------------------
b  ---3-----------------------3---3---2---3---------3---2---0h2h--
G  -----------------------------2---2---2---2-----2---2---2-------
D  -0---0---0---0---0---0---0-------------------------------------

Dm

Dm               A
I wanna see your face painted black, black as night, black as coal
Dm               A
I wanna see the sun blotted out from the sky
Dm  C     F      C        Dm       A
I wanna see it painted, painted, painted, painted black, yeah
Наверх