Аккорды Thousand Foot Krutch - So Far Gone

Добавлено: @romashka
Дата добавления: 28 Января 2018г.
Рейтинг:
0.0
Просмотров: 324
Транспонировать - +
Intro x2:
            Gm 
1)----------3-3-3-3-------------------6-----6-----------------------------
2)----------3-3-3-3-------------------6-----6-----1-1---------------4-3---
3)-3-5-3----3-3-3-3--5-3-5-3--------0-----3---3-------3-2---3--3-3------3-
4)-------3--5-5-5-5--3-3-3-3---1--3---------------3-3-3-3---5--5-3--1-1---
5)----------5-5-5-5-------------------------------------------------------
6)----------3-3-3-3-------------------------------------------------------
            v ^ v ^

Verse:
Gm           F            D#  
I know they say that the space between
F             Gm                D#
Can make it stronger than we've ever seen
Gm             F           D#
They might be right but I disagree
      F                 Gm               D#
Cause I've never felt stronger than when you're with me

Gm           F             D#
Sometimes I wonder why you even care
F           Gm                 D#
Cause even when I leave you're always there with me
Gm          F               D#
And like a candle makes a brighter place
F                 Gm              D#
This mark you've made on me can't be erased. 

3)---0-2-3-
4)-3-------

Chorus:
A#          F              Gm
I wanna be so far gone in you
               D#
So far nothing else will ever do
A#          F               Gm
I wanna be so far gone in you
    D# 
In you..

Intro x1:
            Gm 
1)----------3-3-3-3-------------------6-----6-----------------------------
2)----------3-3-3-3-------------------6-----6-----1-1---------------4-3---
3)-3-5-3----3-3-3-3--5-3-5-3--------0-----3---3-------3-2---3--3-3------3-
4)-------3--5-5-5-5--3-3-3-3---1--3---------------3-3-3-3---5--5-3--1-1---
5)----------5-5-5-5-------------------------------------------------------
6)----------3-3-3-3-------------------------------------------------------
            v ^ v ^

Verse:
Gm           F             D#
I've stood alone and I've fallen down
F                Gm               D#
Your hands were there to pick me off the ground
Gm            F           D#
Sometimes I cry cause I can't believe
F             Gm              D#
Your love is big enough to cover me

Gm               F                D#
Sometimes I've wondered if you're even there
 F              Gm            D#
But when I feel far away you meet me there
Gm          F               D#
And like a candle makes a brighter place
 F                  Gm              D#
This mark you've made on me can't be erased

3)---0-2-3-
4)-3-------
         Yeah

Chorus:
A#          F              Gm
I wanna be so far gone in you
               D#
So far nothing else will ever do
A#          F               Gm
I wanna be so far gone in you
    D# 
In you, in you...

A#          F              Gm
I wanna be so far gone in you
               D#
So far nothing else will ever do
A#          F               Gm
I wanna be so far gone in you
             D# 
I want to be lost

Bridge:
            Gm
I wanna be lost in you
         D#
Like a ship in the night
             A#
I wanna get lost in you
F
Underneath your sky
            Gm
I wanna be lost in you
        D#
Like a ship in the night
A#             F
So far gone tonight (tonight)

Chorus:
A#          F              Gm
I wanna be so far gone in you (tonight)
               D#
So far nothing else will ever do (tonight)
A#          F               Gm
I wanna be so far gone in you (tonight)
    D# 
In you...

Outro: A#  F  Gm

D#              A#  
So far gone in you...
    F
In you...
    Gm
In you...
D#             A#
So far one in you.

Бой Verse: v v V v^. Бой Chorus, Bridge: V v ^ ^ v v v ^
Наверх