Аккорды Торба-на-Круче - Несбыточная

Добавлено: @romashka
Дата добавления: 22 Апреля 2020г.
Рейтинг:
0.0
Просмотров: 60
Транспонировать - +
Вступление: Hm (4 раза)

          Hm                 Hm                 Em                 Em
E| --------2------- | --------2------- | --------0------- | --------0------- |
B| ----3-----3---3- | ----3-----3---3- | ----0-----0---0- | ----0-----0---0- |
G| --4---4-----4--- | --4---4-----4--- | --0---0-----0--- | --0---0-----0--- |
D| 4--------------- | 4--------------- | 2--------------- | 2--------------- |
A| ---------------- | ---------------- | ---------------- | ---------------- |
E| ---------------- | ---------------- | ---------------- | ---------------- |

          F#                 F#                 Hm                  A
E| --------2------- | --------2------- | --------2------- | --------0------- |
B| ----2-----2---2- | ----2-----2---2- | ----3-----3---3- | ----2-----2---2- |
G| --3---3-----3--- | --3---3-----3--- | --4---4-----4--- | --2---2-----2--- |
D| 4--------------- | 4--------------- | 4--------------- | 2--------------- |
A| ---------------- | ---------------- | ---------------- | ---------------- |
E| ---------------- | ---------------- | ---------------- | ---------------- |

          F#                 F#                 Hm                  A
E| --------2------- | --------2------- | --------2------- | --------0------- |
B| ----2-----2---2- | ----2-----2---2- | ----3-----3---3- | ----2-----2---2- |
G| --3---3-----3--- | --3---3-----3--- | --4---4-----4--- | --2---2-----2--- |
D| 4--------------- | 4--------------- | 4--------------- | 2--------------- |
A| ---------------- | ---------------- | ---------------- | ---------------- |
E| ---------------- | ---------------- | ---------------- | ---------------- | и так далее...

Hm     Em    F#              Hm   A
Ты как чудо, где бы ни был всюду
G      Em    F#
Чую, знаю, узнаю твой след.
D      Am    G           F#  
Смех и слезы, и на небе звезды
Em     G     F#
О тебе, хотя тебя почти уже нет...

Припев:
Hm   G        Em   F#
Тает моя большая
    Hm   G    Em   F#
Несбыточная мечта
Тает моя большая
Несбыточная мечта

Тихо-тихо без молитв и крика
Растворяю в серной кислоте
Краски, кисти и все мои мысли
Все, что знает о моей мечте

Припев (2 раза):
Тает моя большая
Несбыточная мечта
Тает моя большая
Несбыточная мечта 
Наверх