Аккорды Tracy Lawrence - From Here to Kingdom Come

Добавлено: @romashka
Дата добавления: 17 Февраля 2024г.
Рейтинг:
0.0
Просмотров: 79
(*) is for 1 strum

[Intro]
  D             G   D         C*
e|----00--------00-----00-----0----|
B|-33----33--33-----33----33--1----|
G|----------------------------0----|
D|----------------------------2----|
A|----------------------------3----|
E|---------------------------------|

[Verse 1]
        G
You can move to another town
                       Em      Em
Take everything I ever gave you
G
Call when you're feeling down
                           Em
Tell me everything I never listened to
Am        G     C   Am     G
   What a sad affair   I'm here
           C       F     Dm
And you're way out there

[Verse 2]
         G
Now your friends say you did the right thing
                        Em        Em
You were never meant to be a wife
          G
And their expert opinions may bring you
                  Em
To making up your mind for life
Am        G      C
   What a tragic night
Am             G             C        F     Dm
   Truth ain't always such a blinding light

[Chorus]
      C             D       G
I can love you from here to Texas
      C           D        G
I can find you in Tennessee
        C        D       G       Em
You can run from here to Kingdom come
        C          D        G
But you can't run away from me

[Solo]
  D             G   D         C*
e|----00--------00-----00-----0----|
B|-33----33--33-----33----33--1----|
G|----------------------------0----|
D|----------------------------2----|
A|----------------------------3----|
E|---------------------------------|

[Verse 3]
C       G
You can stand by your innocent line
                            Em
And pretend that things are better now
              G
But there's a flaw in your perfect design
                     Em
You'd fix it but you don't know how
Am      G     C           Am             G
   Baby I can drive I can keep it on the road
               F     Dm
As long as I'm alive

[Chorus]
      C             D       G
I can love you from here to Texas
      C           D        G
I can find you in Tennessee
        C        D       G       Em
You can run from here to Kingdom come
        C          D        G
But you can't run away from me

[Outro]
        C           D       G
I could find you in California
   C              D         G
Or any place that you might be
        C        D       G       Em
You can run from here to Kingdom come
        C         D         F   F
But you can't run away from me

[Solo]
  D             G   D         C*
e|----00--------00-----00-----0---------|
B|-33----33--33-----33----33--1---------|
G|----------------------------0-------0-|
D|----------------------------2---0-2---|
A|----------------------------3---------|
E|--------------------------------------|
   G           G           Em      Em
e|------------------------------------------|
B|-----1-0---------1-0----------------------|
G|-4-4-----2-0—4-4-----2-0--2---------------|(X4)
D|----------------------------2-2--x-x-x-x--|
A|------------------------------------------|
E|------------------------------------------|
   G        G        Em      Em      G
e|--------------------------------------------|
B|-------0--x-x-x-x---------------------------|
G|-2-2-2--------------2-2-0--x-x-x-x--x-x-x-x-|
D|--------------------------------------------|
A|--------------------------------------------|
E|--------------------------------------------|
 | x Dead note  
Без музыки жизнь была бы заблуждением (Ницше)
Мы стремимся к созданию контента, соответствующего всем нормам законодательства и уважающего интеллектуальную собственность. Мы также придаем большое значение тому, чтобы не задеть никого и не оскорбить чьи-либо чувства. Если у вас есть вопросы или претензии по размещенному материалу, пожалуйста, сообщите нам об этом.
Шрифт
-
0
+
Прокрутка
-
0
+
Стоп
Наверх