Аккорды Tracy Newman - Crooked Man

Добавлено: @romashka
Дата добавления: 10 Июля 2024г.
Рейтинг:
0.0
Просмотров: 10
[Riff]

   C               Am              F               G7
e|-----------0---------------0-------------------------------1-----|
B|-1-----1---------1-----1---------1---------------1-----0---------|
G|-----0-------0-------0-------0-----------------------0-------0---|
D|-----------------------------------------------------------------|
A|-3-------2-------0-------2-------3-------0---2---3---------------|
E|-------------------------------------3-------------------3-------|

[Verse 1]

   C            Am
I met a crooked man
     F                G7
Who walked a crooked mile
 C              Am
Found a crooked six pence
  F                 G7
Against a crooked stile
 C                Am
Bought a crooked kitten
      F                G7
That caught a crooked mouse
       C                 Am
And together they lived happily
      F       G7      [Riff]
In a little, crooked house

[Verse 2]

   C            Am
I met a Crooked Man
         F               G7
Crooked for he could not see
C           Am
 And yet he opened up
    F                G7
A whole new world to me
 C                Am
Taught me how to build a castle
 F               G7
With a grain of sand
     C              Am
And how to catch a rainbow
        F   G7    [Riff]
In the palm of my hand

[Verse 3]

   C            Am
I met a Crooked Man
         F                G7
Crooked for he could not hear
C             Am
 Yet he could make me laugh
   F            G7
If ever came a tear
    C                Am
He taught me how to sing and dance
      F               G7
And whistle down the hall
      C                     Am
And through these things I learned
               F     G7    [Riff]
He wasn't so crooked after all

[Verse 4]

   C            Am
I met a Crooked Man
         F              G7
Crooked for he had no shoes
C             Am
Only had one pair of pants
      F                    G7
Two shirts from which to choose
        C                   Am
Yet he took me through the green grass fields
           F            G7
With the blue skies up above
         C         Am
And the memory I treasure most
    F        G7      C
He taught me how to love

[Outro]
C        Am
 Crooked Man
F         G7
 Crooked mile
C          Am
 A crooked six pence
F         G7
 Crooked stile
C           Am
 A crooked kitten
F         G7
 Crooked mouse
   C                 Am
Together they lived happily
      F        G7     C
In a little, crooked house
   Am
Together they lived happily
      F     G7        C
In a little, crooked house

   C               Am              F               C
e|-----------0---------------0---------------------------------0---|
B|-1-----1---------1-----1---------1--------------------------1----|
G|-----0-------0-------0-------0-----------------------------0-----|
D|----------------------------------------------------------2------|
A|-3-------2-------0-------2-------3-------0---2---3-------3-------|
E|-------------------------------------3---------------------------|
Музыка глушит печаль (Шекспир)
Мы стремимся к созданию контента, соответствующего всем нормам законодательства и уважающего интеллектуальную собственность. Мы также придаем большое значение тому, чтобы не задеть никого и не оскорбить чьи-либо чувства. Если у вас есть вопросы или претензии по размещенному материалу, пожалуйста, сообщите нам об этом на указанный адрес электронной почты: [email protected].
Шрифт
-
0
+
Прокрутка
-
0
+
Стоп
Наверх