Аккорды Церковь Детства - Саранча

Добавлено: @romashka
Дата добавления: 07 Июня 2020г.
Рейтинг:
0.0
Просмотров: 27
Транспонировать - +
E --1-1-0---0----------3-3----1--1-----0--
B ----0---3-3-1-0--------0--1----1--1--1--
G ----2-----2-----2------2-------2-----2--
D ----2-----2-------2----2-------2-----2--
A --0------------------0---------------0--
E ----------------------------------------

Am                               C
Мы летели тучаю грозовой над голубым простором дона
Am                               C     
Мы звенели тьмою египетской крыльями бога Аваддона
Am                               C
Согрешила девица юная, глупое сердце согрешило
Am                               C
Безрассудно ночью лунною заночевать его пустила 

F           Am                C      Am
A утром на заре выходи, встречай
F         C               Am  
На твоей земле села саранча

E --1-1-0---0----------3-3----1--1-----0--
B ----0---3-3-1-0--------0--1----1--1--1--
G ----2-----2-----2------2-------2-----2--
D ----2-----2-------2----2-------2-----2--
A --0------------------0---------------0--
E ----------------------------------------

Am                                 C
Если ты, тварь незамужняя вдруг залетела с кем-то где-то
Am                                 C
Не послушав матери и отца, доброго молодца совета
Am                                 C
Все слетятся на твой зелёный луг, на возбуждающий стук сердца
Am                                 C
Все столпятся на вкус бесстыжих губ, места где спрятан труп младенца

F           Am                C      Am
A утром на заре выходи, встречай
F         C               Am  E
На твоей земле села саранча

F         C               Am  E
За твои слова, глупые смешки 
F           C            Am  E
За твои глаза, за его стишки
F          C                   Am
Села саранча - выходи, встречай!

E --1-1-0---0----------
B ----0---3-3-1-0------
G ----2-----2-----2----
D ----2-----2-------2--
A --0------------------
E ---------------------
Наверх