Аккорды Церковь Детства - Заинька

Добавлено: @romashka
Дата добавления: 11 Июня 2020г.
Рейтинг:
0.0
Просмотров: 35
Транспонировать - +
Вступление и куплеты:
E --------------------------------------------------------------1-1-0-----
B ------3---3---3---3-----3---3---3---3-----3---3---3---3-----2-------2---
G ----2---2---2---2-----2---2---2---2-----2---2---2---2-----2-----------2-
D --0---------------------------------------------------------------------
A --------------------3-----------------2-----------------1-------0-------
E ------------------------------------------------------------------------

на другом конце двора, где цветы стальные на ограде,
там, где мусора гора, потому что раньше урна была рядом,
где стучат и бьются до конца честные, но глупые сердца - 
на другом конце двора не за гроши и не за награды

где облезлый чёрный кот провожает мудрым взглядом
на завод идёт народ, а в деревне поутру выводят стадо
пушкин в няню запускает кружкой, кружки дети - это не игрушки
на другой конец двора ты идёшь счастливый и нарядный

Припев: 
E --------3-1----------------------------------------------------1-1-0------
B ------3-----3----------3---3----3---3-----3---3----3---3-----2-------2----
G ----2---------2------2---2----2---2-----0---0----0---0-----2-----------2--
D --0-------0-----0---------------------------------------------------------
A --------------------3--------3----------------------------1------0--------
E -------------------------------------3----------3-------------------------

все сидят и тебя ждут, заинька
а ты придёшь и тебя сожрут, сладенький

на другой конец двора ты идёшь красивый и любимый
вот и мусора гора, вот она, родимая малина
полюбуйся - красота какая, как заходит солнце за сарай
если выживешь - увидишь, как взойдёт оно с утра над магазином

все сидят и тебя ждут, заинька
а ты придёшь и тебя сожрут, сладенький
Наверх