Аккорды Вадим Самойлов - Слова закончились

Добавлено: @romashka
Дата добавления: 01 Июня 2017г.
Рейтинг:
0.0
Просмотров: 469
Транспонировать - +
Вступление:
1|--------------------------------
2|--------------------------------
3|-------2----4-----0-------------
4|---2------------------4---------
5|--------------------------2-----
6|--------------------------------

1|--------------------------------
2|--------------------------------
3|-------2----4-----0-------------
4|---2------------------4---------
5|--------------------------------
6|--------------------------------

Вступление/проигрыш: C  Am  Em }x2

      Во время куплетов на второй гитаре:
      1|--0--0----0------0--0----0------
      2|-------3-----3---------3----3---
      3|--------------------------------

            C               Am      Em
Вот чистый лист в нём проступают города
       C           Am      Em
И очертанья наших будущих имён
        C       Am        Em
Они видны издалека едва-едва
          C              Am        Em
Не разглядеть их торжествующих знамён
        C          Am      Em
Таращу лист уже усталые глаза
          C         Am        Em
Хлещу кнутами воспалённые мозги
          C         Am        Em
Пришёл, увидел,победил и опоздал
         C            Am               Em
Исписан лист изорван лист и стол в крови

Припев:
     Em             F#             A#m       A#m *
Я тороплюсь, я торможу, я нужных слов не нахожу
Em          F#          A#m          A#m **
Слов больше нет, и знаю я: им тоже плохо без меня
          C *              A#7(II)   Em
Мы не найдём друг друга больше никогда
         Am7          B7           Em
Слова закончились, закончились слова

Проигрыш: C  Am  Em }x2

            C               Am  Em
Гоняю в комнате унылый порожняк
       C           Am      Em
Как мухобойкой по стене гоняют мух
       C           Am      Em
А в голове такой торжественный сквозняк
       C           Am      Em
Что у меня уже захватывает дух

Припев:
     Em             F#             A#m       A#m *
Я тороплюсь, я торможу, я нужных слов не нахожу
Em          F#          A#m          A#m **
Слов больше нет, и знаю я: им тоже плохо без меня
          C *              A#7(II)   Em
Мы не найдём друг друга больше никогда
         Am7          B7           Em
Слова закончились, закончились слова
    
Конец:
1|--------------------------------
2|--------------------------------
3|-------2----4-----0-------------
4|---2------------------4---------
5|--------------------------2-----
6|--------------------------------

1|--------------------------------
2|--------------------------------
3|-------2----4-----0-------------
4|---2------------------4---------
5|--------------------------------
6|--------------------------------


Играется обычной шестёркой. 

Bm * (без барре)
   I  II  III  IV 
1|---|---|---|---|---                                 
2|---|---|-2-|---|---                                 
3|---|---|---|-4-|---                                 
4|---|---|---|-3-|---                                 
5|---|---|---|---|---                                 
6|---|-x-|---|---|---
                                                      
Bm **
   I  II  III  IV 
1|---|-1-|---|---|---
2|---|---|-2-|---|---
3|---|---|---|-4-|---
4|---|---|---|-3-|---
5|---|---|---|---|---
6|---|-x-|---|---|---
                                                      
   C *                                                
   I  II  III  IV  V                             
1|---|---|---|---|---|---     
2|---|---|---|---|-4-|---
3|---|---|---|---|-3-|---
4|---|---|---|---|-2-|---
5|---|---|---|---|---|---
6|---|-x-|---|---|---|---
Наверх