Аккорды Van Morrison - And The Healing Has Begun

Добавлено: @romashka
Дата добавления: 28 Мая 2024г.
Рейтинг:
0.0
Просмотров: 15
[Intro]
G    C   D  x2

(This is the violin part in the intro)
    G                 C        D
e|---------------------------------------------------------------------------|
B|---------------------------------------------------------------------------|
G|--4--4--4--2--0--2--0---0-0--2--0--2---------------------------------------|
D|---------------------------------------------------------------------------|
A|---------------------------------------------------------------------------|
E|---------------------------------------------------------------------------|x2
    G                 C        D     G         C      D
e|---------------------------------------------------------------------------|
B|---------------------------------------------------------------------------|
G|--4--4--4--2--0--2--0---0-0-2--2-2-0-----0-0-2--4p5-4---2------------------|
D|---------------------------------------------------------------------------|
A|---------------------------------------------------------------------------|
E|---------------------------------------------------------------------------|

[Verse]
          G                     C    D
And we'll walk down the avenue again
          G                                C     D
And we'll sing all the songs from way back when
          G                     C            D           G
And we'll walk down the avenue again and the healing has begun

[Instrumental]
                              C            D
[Violin part]
e|---------------------------------------------------------------------------|
B|--------3--5--9--11--13--16--18--16--13--11-9--5--3------------------------|
G|--2--4-----------------------------------------------4--2------------------|
D|---------------------------------------------------------------------------|
A|---------------------------------------------------------------------------|
E|---------------------------------------------------------------------------|

           G                       C     D
And we'll walk down the avenue in style
           G                             C     D
And we'll walk down the avenue and we'll smile
           G                         C
And we'll say baby ain't it all worthwhile
         D           G
When the healing has begun

[Instrumental]
    C       D

              G                         C     D
I want you to put on your pretty summer dress
G                                              C    D
  You can wear your Easter bonnet and all the rest
G                                        C
  And I wanna make love to you yes, yes, yes
         D           G
When the healing has begun

  C                D          G       C    D
Alright, When the healing has begun

[Violin solo]
G        C   D   x8

[Verse] 
G                                         C     D
  When you hear the music ringin' in your soul
G                                                C     D
  And you feel it in your heart and it grows and grows
G                                        C             D           G
  And it comes from the backstreet rock & roll and the healing has begun (That's were you come from, man)

    C        D
G                                            C         D
  I want you to put on your own summer red dress, c'mon
G                                             C      D
  You can wear your Easter bonnet and all the rest
G                                  C
  And I wanna make love to you yes, yes, yes
        D           G
And the healing has begun

             C          D
I can't stand myself

G                                       C      D
  We're gonna make music underneath the stars
G                                               C     D
  We're gonna play to the violin and the two guitars
              G                                                C
And we'll sit there and play for hours and hours and hours and hours and hours and hours
    D                                               G
and hours and hours and hours, when the healing has begun
                                      C
and hours and hours and hours and hours
         D                      G
When the, when the healing has begun

[Interlude]
      C       D
Wait a minute, listen, listen
G                                C    D
  I didn't know you stayed up so late
G                                       C    D
  You know, I just got home from, from a gig
                G                        C
  And I saw you standing on the street
                D                        G
Just let me move on up to this window-sill a lot yeah
  C                D
I got some sherry
G                        C
 You want a drop of port
                        D               G                       C
Yeah I want you to come on in behind, uh, behind this door here
          D                  G                     C
Let's move on up this, this.....letter-box in here
      D               G                                C    D
Let's go in your front room, and sit a down set of tea
G                                                 C              D   G       C
  Yeah, I gotta play this Muddy Waters record here, you got here
D                         G
  If you just open up a little bit
           C                D                  G                    C      D
And let me come on in yo know, ease in on this backstreet jellyroll

[Instrumental]
G     C   D

[Verse] 
G                                   C   D
  We're gonna stay out all night long
G                                                     C    D
  And then we're gonna go out and roam across the field
G                      C             D          G
  Baby you know how I feel when the healing has begun
                 C          D          G
When the healing, when the healing has begun
    C               D                  G
Oooh and the healing, when the healing has begun
            C
We're gonna dance
            D                    G
We're gonna stay out all night long
                                C
We're gonna dance to the rock & roll
         D           G
When the healing has begun
       C           D
Oh baby, now you just
G                            C      D     G                   C
  Let me ease on a little bit, dig this.....backstreet jellyroll
        D                       G           C    D
And the healing, and the healing has begun

[Outro]
  G      C    D
Но если и музыка нас оставит, что будет тогда с нашим миром? (Гоголь)
Мы стремимся к созданию контента, соответствующего всем нормам законодательства и уважающего интеллектуальную собственность. Мы также придаем большое значение тому, чтобы не задеть никого и не оскорбить чьи-либо чувства. Если у вас есть вопросы или претензии по размещенному материалу, пожалуйста, сообщите нам об этом на указанный адрес электронной почты: [email protected].
Шрифт
-
0
+
Прокрутка
-
0
+
Стоп
Наверх