Аккорды Van Morrison - Domino

Добавлено: @romashka
Дата добавления: 29 Мая 2024г.
Рейтинг:
0.0
Просмотров: 11
Intro:

      A         D              A         D6
e|------------x-10--x-----|----9-------x-7--7-x----|
B|----10------x-10--x-----|----10------x-7--7-x----|
G|--9h11p9----x-11--x-----|--9h11p9----x-7--7-x----|
D|---------11---------11--|---------11----------9--|
A|------------------------|------------------------|
E|------------------------|------------------------|

      A         D                 A         D6
e|----9-------x-10--10-x-----|----9---------7--7-7-x--|
B|----10------x-10--10-x-----|----10--------7--7-7-x--|
G|--9h11p9----x-11--11-x-----|--9h11p9------7--7-7-x--|
D|---------11------------11--|---------11-x-----------|
A|---------------------------|------------------------|
E|---------------------------|------------------------|

Verse 1:

      A         D                 A         D6
e|--------------10--10-x-----|------------x-7--7-x-----|
B|----10--------10--10-x-----|----10------x-7--7-x-----|
G|--9h11p9------11--11-x-----|--9h11p9----x-7--7-x-----|
D|---------11-x----------11--|---------11----------11--|
A|---------------------------|-------------------------|
E|---------------------------|-------------------------|

(with Above Riff):

A      D           A       D6
 Don't want to dis-cuss it,

    A      D             A      D
e|---------7--7-x-----|--------------------|
B|--10-x-x-7--7-x-----|--10-x-x----7-x-----|
G|--9--x-x-7--7-x-----|--9--x-x-7----x-----|
D|----------------11--|---------7----x-11--|
A|--------------------|--------------------|
E|--------------------|--------------------|

(with Above Riff):

A           D          A      D
 Think it's time for a change.

    A      D6            A         D
e|---------7--7-x-----|-----------------------|
B|--10-x-x-7--7-x-----|--10-x---------7-------|
G|--9--x-x-7--7-x-9---|--9--x------7----x-----|
D|----------------11--|------------7----x-11--|
A|--------------------|--------7h9-9----x-----|
E|--------------------|-----------------------|

(with Above Riff):

A    D6          A      D
 You may get dis-gusted,

    A        D6             A
e|-----------7--7--x-----|-----------------|
B|--10-x--x--7--7--x-----|-----------------|
G|--9--x--x--7--7--x-----|--7--0--x-x------|
D|-----------------------|--7-----x-x--11--|
A|--------------------9--|-----------------|
E|-----------------------|-----------------|

(with Above Riff):

A          D6                       A
 And start thinkin' that I'm actin' strange.

(with Above Verse Riffs):

A        D6            A           D
 In that case, I'll go underground;
A  D6             A    D
   Get some heavy rest.
A D6            A     D
  Never have to worry,
A              D6                A    D
 About what is worst and what is best. Get it!

Chorus 1:

    A*        D*            A*       D*
e|-----------------------|-----5---------------|
B|-----2------3--3-------|-----2--------3-3----|
G|-----2----2h4--2----2--|--2------------------|
D|--2-----4---------4----|-------4-2h4---------|
A|--0--------------------|------------------0--|
E|-----------------------|---------------------|

(with Above Riff):

A*   D*       A* D*
 Oh, oh, Domi-no, alright,

    A*         D*           A*          D*
e|-----------------------|-------5----------------|
B|------2------3---------|-----2----------3-------|
G|------2----2h4--2------|------------------------|
D|------------------4-2--|--2-------4-2h4---4--2--|
A|--0-0---0-----------0--|--0------------------0--|
E|-----------------------|------------------------|

(with Above Riff):

A*       D*         A* D*
 Roll me over, Rome-o, there you go.

   A*        D*            A*        D*
e|----------------------|---------------------|
B|-------2-x-3-3--------|-----2---------------|
G|-----2-2-x-4-2--------|-----2--------2-4----|
D|--2--2----------4--2--|--2-----2-2h4-----2--|
A|--0----------------0--|--0-----0---------0--|
E|----------------------|---------------------|

(with Above Riff):

A*  D*    A*         D*
     Lord have mercy. I said...

    A*       D*         A*          D*
e|-------------------|-------5---------------|
B|-----2---3-3-------|-------2---------------|
G|-----2---4-2-------|----2-----------2-2-2--|
D|--2----2------4-2--|--2-------2-2h4--------|
A|--0-------------0--|--0--------------------|
E|-------------------|-----------------------|

(with Above Riff):

A*   D*       A* D*
 Oh, oh, Domi-no,

    A*     D             A*           D*
e|--------------7-----|-------5--------------|
B|-----2------7----2--|--2-2--3-------2------|
G|--2--2-----------2--|--2-2-----4b6----4-2--|
D|---------7-------2--|--2-------------------|
A|--------------------|----------------------|
E|--------------------|----------------------|

(with Above Riff):

A*       D          A* D*
 Roll me over, Rome-o, there you go.

    A*             D       A*          D*
e|-----------------7----|---------------------|
B|-----------2--2--7----|-------2----3-3------|
G|--2-2------2--2-------|-------2----4-2---2--|
D|-------2h4---------2--|--2-2----4------4----|
A|-------------------0--|--0-0----------------|
E|----------------------|---------------------|

(with Above Riff):

A*  D         A*   D*
     Say it a-gain.

Break:

    Bm                  E
e|-------------------|--------------------|
B|-------------------|--------------------|
G|-------------------|--------------------|
D|-------------------|--------------------|
A|--2-2-4-4-5-5-6-6--|--7-7-9-9-10-10-11--|
E|-------------------|--------------------|

(with Above Riff):

Bm    E
 Oh...oh, oh...

    A    D6      A           D6
e|-----x-7--7-x--5--|--x-x-x-7--7-x-x--|
B|-----x-7--7-x--5--|--x-x-x-7--7-x-x--|
G|-----x-7--7-x--6--|--x-x-x-7--7-x-x--|
D|------------------|------------------|
A|--0---------------|------------------|
E|------------------|------------------|

(with Above Riff):

A     D6  A  D6
 Domi-no.     I said...

    Bm                        E               A**
e|-------------------------|------------------5-5--|
B|-------------------------|------------------5-5--|
G|----------2-----2-----2--|------------------6-6--|
D|------2h4---2h4---2h4----|-----------------------|
A|--2-2--------------------|-----------------------|
E|-------------------------|--0-0-0-0-0-0-0--------|

(with Above Riff):

Bm    E
 Oh...oh, oh...

    A**     D6      A**                 D6
e|--5--x-x--7--7-x--5-5--|--5--x-x-x--5-7--7--|
B|--5--x-x--7--7-x--5-5--|--5--x-x-x--5-7--7--|
G|--6--x-x--7--7-x--6-6--|--6--x-x-x--6-7--7--|
D|-----------------------|--------------------|
A|-----------------------|--------------------|
E|-----------------------|--------------------|

(with Above Riff):

A**   D6  A**  D6
 Domi-no.       Dig it!

Interlude:

A  D, A  D6 (x2)

Verse 2: (with Verse Riffs)

A           D             A    D6
 There's no need for argu-ment,
A  D6              A           D
   There's no argu-ment at all.
A    D            A             D6
 And if you never hear from him,
A          D               A    D6
 That just means he didn't call.
A   D6     A     D
 Or vice-A-versa,
        A              D6             A  D
That de-pends on where-ever you're at.
A    D6           A            D
 And if you never hear from me;
A          D6            A           D
 That just means I would rather not... Hit it!

Chorus 2: (with Chorus Riffs)

A*   D*       A* D*
 Oh, oh, Domi-no, alright,
A*       D*         A* D*
 Roll me over, Rome-o, there you go.
A*  D*    A*         D*
     Lord have mercy. I said...

A*   D*       A* D*
 Oh, oh, Domi-no,
A*       D          A* D*
 Roll me over, Rome-o, there you go.
A*    D   A*    D*
  Hey, al-right   Say it a-gain.

Break: (with Break Riffs)

Bm    E
 Oh...oh, oh...
A     D6  A  D6
 Domi-no.     I said...
Bm    E
 Oh...oh, oh...
A**   D6  A**  D6
 Domi-no.       Hey, Mr. DJ...

Coda:

A  D             A          D6             A          D
    I just wanna hear some, Rhythm & Blues music, yes.
A             D6          A     D
 On the radio, on, on the radio.
                A     D6
On, on the radi-o, ah.
       A         D           A         D6      A                    D6
A-A-al-right, ah, ah, A-A-al-right, ah, A-A-al-right. Hear the band!

Outro:

A  D, A  D6 (x2), A  D  A  D, A  D6  A

CHORD DIAGRAMS:
---------------

     A          D         D6      A*      D*      Bm      E       A**

 EAD G B E  EAD G B E   EADGBE  EADGBE  EADGBE  EADGBE  EADGBE  EADGBE
 xx1111109  xx11111010  xx7777  x02220  xx0232  x24432  022100  xx7655
Но если и музыка нас оставит, что будет тогда с нашим миром? (Гоголь)
Мы стремимся к созданию контента, соответствующего всем нормам законодательства и уважающего интеллектуальную собственность. Мы также придаем большое значение тому, чтобы не задеть никого и не оскорбить чьи-либо чувства. Если у вас есть вопросы или претензии по размещенному материалу, пожалуйста, сообщите нам об этом на указанный адрес электронной почты: [email protected].
Шрифт
-
0
+
Прокрутка
-
0
+
Стоп
Наверх