Аккорды Vasily Richter - Each Other

Добавлено: @romashka
Дата добавления: 01 Февраля 2021г.
Рейтинг:
0.0
Просмотров: 73
Транспонировать - +
[Intro]

Main riff

e|--------------------------------------------------------|
B|--------------------------------------------------------|
G|--------------------------------------------------------|
D|--------5---2-----------------------5---2---------------|
A|----------------5---2---5-------------------5---2---5---|
E|3---3-----------------------3---3-----------------------|

e|--------------------------------------------------------|
B|--------------------------------------------------------|
G|--------------------------------------------------------|
D|--------5---2-------------------------------------------|
A|----------------5---2---5---3---3---3------2---2---2----|
E|1---1---------------------------------------------------|



[Verse 1]
G             F      C B
 I don't know why
G             F      C B
 You're so sublime
G             F      C B
 Like northern lights
G          F         C B
 Up in the clouds

[Chorus]
G
 We hate each other
G
 We hate each other
F
 We hate each other
C B
G
 We hate each other
G
 We hate each other
F
 We hate each other
C B

e|--------------------------------------------------------|
B|--------------------------------------------------------|
G|----5---5-------5---4-----------5---5-------5---4-------|
D|------------------------5---------------------------5---|
A|--------------------------------------------------------|
E|--------------------------------------------------------|

e|--------------------------------------------------------|
B|--------------------------------------------------------|
G|----5---5-------5---4---------------------------4-------|
D|------------------------5-------5-------5---------------|
A|--------------------------------------------------------|
E|--------------------------------------------------------|

[Bridge]
G
I don't know what's it like
C                 Bb
Is it really does worth a try
G
For those lies you so desire
  C                      Bb
I simply would burn in a forest fire
G
So fucked up you're in a drill
   C               Bb
It wasn't wrong to take that pill
   G
If I end up to live tonight
     C                       Bb
It's gonna be with someone I don't dislike


[Verse 2]

G           F     C B
 I won't go cry
G              F  C B
 For those who lie
G          F      C B
 Under the soil
G          F      C B
 Or not at all


[Chorus]
G
 We hate each other
G
 We hate each other
F
 We hate each other
C B
G
 We hate each other
G
 We hate each other
F
 We hate each other
C B

[Outro]
G
 We hate each other
G
 We hate each other
F
 We hate each other
C  C  B
Pa-Pa-Pa
G
 We hate each other
G
 We hate each other
F
 We hate each other
C  C  B  G
Pa-Pa-Pa-Pa
Наверх