Аккорды Vasily Richter - Rockmp3

Добавлено: @romashka
Дата добавления: 22 Апреля 2021г.
Рейтинг:
0.0
Просмотров: 149
Транспонировать - +
[Chorus] х4

e|------------------------|
B|------------------------|
G|------------------------|
D|--------------------5-7h|
A|-----------5-5-5-7h-----|
E|5-5-5-5-8h--------------|

Verse 1

A             G          D
well hello my friend goodbye
A                G        D
broke my hands i cant say hi
A                    G       D
i dont care that you burn in fire 
A              G     D
rearrange into my desire

G D

Chorus х4

e|------------------------|
B|------------------------|
G|------------------------|
D|--------------------5-7h|
A|-----------5-5-5-7h-----|
E|5-5-5-5-8h--------------|

Verse 2

A               G        D
we are floating thru the colours
A              G       D     
on the ancient eastern carpets
A              G      D
sinking in the sea of fire
A              G      D
all because of my desire

G D

Bridge 1 х2

e|-------------------------------|
B|-------------------------------|
G|-------------------------------|
D|-------------------------------|
A|--------5-5-5-5-3--------------|
E|5-5-5-5-----------------3-3-3-3|

Bridge 2 

e|---------------------------------|
B|---------------------------------|
G|---------------------------------|
D|--------4-5-4--------------------|
A|--------------7-5-3--------------|
E|5-5-5-5-------------------3-3-3-3|

e|---------------------------------|
B|---------------------------------|
G|---------------------------------|
D|--------6-7-6--------------------|
A|--------------9-7-5--------------|
E|5-5-5-5-------------------3-3-3-3|

Bridge

A7#9 Dm6 D7

Chorus х4

e|------------------------|
B|------------------------|
G|------------------------|
D|--------------------5-7h|
A|-----------5-5-5-7h-----|
E|5-5-5-5-8h--------------|

Chorus х4

e|------------------------|
B|------------------------|
G|------------------------|
D|--------------------5-7h|
A|-----------5-5-5-7h-----|
E|5-5-5-5-8h--------------|

Bridge 1 х2

e|-------------------------------|
B|-------------------------------|
G|-------------------------------|
D|-------------------------------|
A|--------5-5-5-5-3--------------|
E|5-5-5-5-----------------3-3-3-3|

Bridge 2 

e|---------------------------------|
B|---------------------------------|
G|---------------------------------|
D|--------4-5-4--------------------|
A|--------------7-5-3--------------|
E|5-5-5-5-------------------3-3-3-3|

e|---------------------------------|
B|---------------------------------|
G|---------------------------------|
D|--------6-7-6--------------------|
A|--------------9-7-5--------------|
E|5-5-5-5-------------------3-3-3-3|
Наверх