Аккорды Веня Д'ркин - Ещё одно утро

Добавлено: @romashka
Дата добавления: 27 Марта 2022г.
Рейтинг:
0.0
Просмотров: 30
Транспонировать - +
[Вступление]:
e----------------------|
b----------------------|
g----------------------|
d---0----7----6--------|
a------------------7---|  (4 раза)
e----------------------|

Dm

Dm 
Еще одно утро оборванных снов 
Dm 
Опять начало нового рабочего дня, 
     C                  Am
Где тень в тени декоративных мозгов 
      Gm                      Dm 
Где зеленая вонь, а дым без огня 

Dm  
Мусорный ящик, пепельный хлам 
Dm  
Объедки, помои, бычки и мы сами 
     C                   Am
Это сон во сне, который снится нам 
   Gm                       Dm 
И это мы в нем под прямыми углами 

      Dm                           A 
Вот сидим и смакуем из фужеров говно 
            A7               Dm 
И пытаемся женщин любить на бегу 

e---------------------------------------------|
b---------------------------------------------|
g------7------6-------------------------------|
d----------------8--7------5------------------|
a-------------------------------8---7---5-----|  
e---------------------------------------------| 
Но я жду, когда мастер введёт это дно


e--------------|      e--------------|  
b--------------|      b--------------|
g--------------|      g--------------|
d--------------|      d--------------|
a--------------|      a--------------|
e--3---5---6---| Gm   e--3---5---6---|  Gm            Bb
В состояние сна                         -  и тогда я смогу 

         C           F              Dm * 
Уставиться в голую степь и увидеть дым 
Bb              C              F     C *           
 Астральных миров и слышать голос оттуда, 
    Bb          C
И что я могу, что я могу 
  F               Dm * 
Кроме как стать немым 
Bb             F
В процессе познания 
Gm       C     F
 Этого чуда 

[Проигрыш]:
Dm

[Модуляция в тональность Em]:

  Em 
Еще одно утро, еще один шаг 
  Em 
Вечно юной Дианы с серебряным луком 
   D             Bm
В сторону леса, туда, где закат 
     Am                        Em   
Где тени под светом страны Нибелунгов. 

  Em                         B 
Ничто так хорошо не смывает грим, 
                               Em                                    
Как в вену куб совести перед и до 

e---------------------------------------------|
b---------------------------------------------|
g------9------8-------------------------------|
d----------------10--9------7-----------------|
a-------------------------------10---9---7----|  
e---------------------------------------------|
   Душа  проститутка     - мой анальгин 

e--------------|      e--------------|  
b--------------|      b--------------|
g--------------|      g--------------|
d--------------|      d--------------|
a--------------|      a--------------|
e--5---7---8---| Am   e--5---7---8---|  Am              C *           
Но с нею так здорово                        растет мортидо 

          D *               G *             Em * 
Закрыть глаза ладонями та видеть слепящий свет 
C *          D*             G*    D*
  Это  за мной, за пылью серой вечно, 
    C *           D *  
И что я могу, что я могу, 
  G *     G/F# *    Em * 
Кроме как быть и нет 
C *               G *
  В процессе движения 
Am *    D *     G *
  Этого нечто. 

[Проигрыш]:
Em
A Dm 

БОльшая часть песни играется с баррэ, но есть и места,
где аккорды играются на открытых струнах. 
Для разграничения рядом с аккордом стоит "*". 
Видишь аккорд с "*" - значит аккорд играется на открытых струнах, 
во всех остальных случаях с баррэ в середине грифа. 
Наверх