Аккорды Wilco - I'm A Wheel

Добавлено: @romashka
Дата добавления: 04 Января 2024г.
Рейтинг:
0.0
Просмотров: 112
This song is in the key of A

[Intro]
A D G D

[Verse]
A         D6
Oh, hold on
F#m7     D6
You risk exciting me
Amaj7                        Fmaj7
Once in Germany someone said nein
   Em F#m G  A  G  F#m Em
e|-----------------------|
B|-----------------------|
G|-----------------------|
D|-----------------------|
A|-----------0-----------|
E|--0--2--3-----3--2--0--|
A                                                F
One, two, three, four, five, six, seven, eight, nine
   Em F#m G  A  G  F#m Em
e|-----------------------|
B|-----------------------|
G|-----------------------|
D|-----------------------|
A|-----------0-----------|
E|--0--2--3-----3--2--0--|

[Verse]
A         D6
Oh, hold back
F#m7          D6
Oh, don't invite me
Amaj7                                           Cmaj7
One, two, three, four, five, six, seven, eight, nine
   Em F#m G  A  G  F#m Em
e|-----------------------|
B|-----------------------|
G|-----------------------|
D|-----------------------|
A|-----------0-----------|
E|--0--2--3-----3--2--0--|
Amaj7                        Fmaj7
Once in Germany someone said nein
   Em F#m G  A  G  F#m Em
e|-----------------------|
B|-----------------------|
G|-----------------------|
D|-----------------------|
A|-----------0-----------|
E|--0--2--3-----3--2--0--|

[Chorus]
E
I'm a wheel
D         A B A D
I will
A        D6
Turn on you
G B A D

[Verse]
A                         D
Oh, I invented a sister
A                      D
Populated with knives
A
Uh-uh-uh-uh-uh-uh-uh-uh
   Em F#m G  A  G  F#m Em
e|-----------------------|
B|-----------------------|
G|-----------------------|
D|-----------------------|
A|-----------0-----------|
E|--0--2--3-----3--2--0--|
A
Uh-uh-uh-uh-uh-uh-uh-uh
   Em F#m G  A  G  F#m Em
e|-----------------------|
B|-----------------------|
G|-----------------------|
D|-----------------------|
A|-----------0-----------|
E|--0--2--3-----3--2--0--|

[Chorus]
E
I'm a wheel
D         A B A D
I will
A             D6
Turn on you

[Instrumental]
G B A D
F G A F G A F
A
Um...

[Chorus]
E             G
I'm a wheel
D
I will
E             G
I'm a wheel
D
I will
E             G
I'm a wheel
D
I will
F#m Bm A D
D    A5
Turn you

[Outro]
A D E A D A
D A D
D         A            D            A
I'm gonna turn on you, turn on you
A            D             A
Turn on you, turn on you, turn on you
A                     G
I'm gonna turn on you, turn on you
D            A
Turn on you, turn on you, turn on you
D
I'm gonna turn on you,
   Em F#m G  A  G  F#m Em
e|-----------------------|
B|-----------------------|
G|-----------------------|
D|-----------------------|
A|-----------0-----------|
E|--0--2--3-----3--2--0--|
A                              D D
 turn on you, turn on you		
Музыка выражает то, что нельзя выразить словами и то, о чем нельзя молчать (Виктор Гюго)
Мы стремимся к созданию контента, соответствующего всем нормам законодательства и уважающего интеллектуальную собственность. Мы также придаем большое значение тому, чтобы не задеть никого и не оскорбить чьи-либо чувства. Если у вас есть вопросы или претензии по размещенному материалу, пожалуйста, сообщите нам об этом на указанный адрес электронной почты: [email protected].
Шрифт
-
0
+
Прокрутка
-
0
+
Стоп
Наверх