Аккорды Янка Дягилева - Нюркина песня

Добавлено: @vitos
Дата добавления: 16 Марта 2013г.
Рейтинг:
5.0
Просмотров: 650
Транспонировать - +
E|0---0-----3---0-0-----0-----------0-----------0-----0---1--|
B|--------3-----------3---3---0---1---3---0---1---3----------|
G|-----------------------------------------------------------|
D|-----------------------------------------------------------|
A|3-------------3-3---2-----------0---2---2---0---2----------|
E|--------3--------------------------------------------------|

E|-0----0-----3---0-0-----0----------0----|
B|----------3-----------3---3--0-1------3-|
G|----------------------------------------|
D|----------------------------------------|
A|-3--------------3-3---2--------0-------2|
E|----------3-----------------------------|

Asus2 Am Asus2 - 4 раза*

Вступление: C G C E Am E Am G  C G C E Am E Am

Asus2 Am Asus2 - 4 раза

C G C E Am E Am E

Am                E          Am
Разложила девка тряпки на полу,
      C           G          C
Раскидала карты-крести по углам,
     Dm         Am
Потеряла девка радость по весне,
 E               Am
Позабыла серьги-бусы по гостям.

По глазам колючей пылью белый свет,
По ушам фальшивой трелью белый стих,
По полям дырявой шалью белый снег,
По утрам усталой молью белый сон.

Развернулась бабской правдою стена,
Разревелась-раскачалась тишина.
По чужим простым словам, как по рукам,
По подставленным ногам - по головам.

А в потресканном стакане старый чай,
Не хватило для разлету старых дел.
Фотографии - там звездочки и сны.
Как же сделать, чтоб всем было хорошо.

Все что было - все, что помнила сама
Смел котейка с подоконника хвостом.
Приносили женихи коньячок,
Объясняли женихи - что почем.

Кто под форточкой сидит - отгоняй,
Ночью холод разогнался с Оби,
Вспоминай почаще солнышко свое
То не ветер ветку клонит
Не дубравушка шумит...
comments powered by Disqus
Наверх