Аккорды ZSK - Antifascista

Добавлено: @romashka
Дата добавления: 01 Апреля 2024г.
Рейтинг:
0.0
Просмотров: 28
Транспонировать - +
[Intro]
    D5  F5  Bb5 A5    D5  F5  Bb5 A5
E|-----------------|-----------------|
B|-----------------|-----------------|
G|----------3---2--|----------3---2--|
D|--0---3---3---2--|--0---3---3---2--|
A|--0---3---1---0--|--0---3---1---0--|
D|--0---3----------|--0---3----------|

[Chorus]
N.C.
Unsere Stadt, merk euch das
N.C.
Für euch ist kein Platz da
D5*     D5    A5  Bb5
Alerta Alerta Antifascista
D5
Wir stoppen eure Aufmärsche
D5
Hetz-Propaganda
D5*    D5     A5  Bb5
Alerta Alerta Antifascista
D5
Egal wo ihr auftaucht
D5
Wir sind zu erst da
D5*    D5     A5  Bb5
Alerta Alerta Antifascista
A5
Wir brauchen kein Verbot
A5
Denn wir können das viel besser
Bb5           C5
Alerta Alerta Antifascista

[Interlude]
    D5* D5  A5  Bb5    D5* D5  A5  Bb5
E|------------------|------------------|
B|------------------|------------------|
G|--7-------2---3---|--7-------2---3---|
D|--7---0---2---3---|--7---0---2---3---|
A|--5---0---0---1---|--5---0---0---1---|
D|------0-----------|------0-----------|

[Verse]
D5*                           Bb5
Wir fahren nach Dresden, nach Hamburg, Berlin
     F5
Nach Dortmund und Köln
     C5
Damit ihr einseht
       D5*
Keinen Meter kriegt ihr
          Bb5
Weil hier gar nichts mehr geht
   F5                        C5              C#5 D5* A5
Zu Tausenden stellen wir uns euch in den Weg

[Chorus]
D5
Unsere Stadt, merk euch das
D5
Für euch ist kein Platz da
D5*     D5    A5  Bb5
Alerta Alerta Antifascista
D5
Wir stoppen eure Aufmärsche
D5
Hetz-Propaganda
D5*    D5     A5  Bb5
Alerta Alerta Antifascista
D5
Egal wo ihr auftaucht
D5
Wir sind zu erst da
D5*    D5     A5  Bb5
Alerta Alerta Antifascista
A5
Wir brauchen kein Verbot
A5
Denn wir können das viel besser
Bb5           C5
Alerta Alerta Antifascista

[Interlude]
    D5* D5  A5  Bb5    D5* D5  A5
E|------------------|-------------|
B|------------------|-------------|
G|--7-------2---3---|--7-------2--|
D|--7---0---2---3---|--7---0---2--|
A|--5---0---0---1---|--5---0---0--|
D|------0-----------|------0------|

[Solo]
   A5   Bb5  C5   Bb5
E|-10---12---13------------------------------|
B|-13b--15b--16b-----------------------------|
G|----------------------10-------10-------10-|
D|----------------10h12----10h12----10h12----|
A|-------------------------------------------|
D|-------------------------------------------|

   C5                 D5*
                     |----------p.m.------------|
----------------------------------------------|
----------------------------------------------|
-------10-------10-------10-------10-------10-|
-10h12----10h12----10-12----10-12----10-12----|
----------------------------------------------|
----------------------------------------------|

                      Bb5   C5    D5*
 |-------p.m.--------|
-----------------------------------------------------|
--------------------10-------------------------------|
-------10-------10-----10-12-10-10-------10----12----|
-10-12----10-12--------------------12-12----12----12-|
-----------------------------------------------------|
-----------------------------------------------------|

                               Bb5   C5     D5*
E|-----------------------------10---12----------|
B|-------------10----------10--13b--15b---------|
G|-10----12----------10h12---------------10-----|
D|----12----12----12------------------------12~-|
A|----------------------------------------------|
D|----------------------------------------------|

[Outro]
D5
Alerta Alerta Antifascista
Bb5           F5    A5
Alerta Alerta Antifascista
D5
Alerta Alerta Antifascista
Bb5           F5    A5
Alerta Alerta Antifascista
D5
Alerta Alerta Antifascista
Bb5           F5    A5
Alerta Alerta Antifascista
D5
Alerta Alerta Antifascista
Bb5           F5    A5
Alerta Alerta Antifascista
D5            Bb5   F5
Alerta Alerta Antifascista
D5            Bb5    F5
Alerta Alerta Antifascista
D5            F5
Alerta Alerta Antifascista
D5            F5
Alerta Alerta Antifascista
------------------------------

* high D 5th freet a string
b Bend  
Наверх