Аккорды Агата Кристи - Трансильвания

Добавлено: @romashka
Дата добавления: 22 Марта 2019г.
Рейтинг:
0.0
Просмотров: 57
Транспонировать - +
Вступление:
E|--0-0-0--0-0-0--0-0-0--0-0-0-
B|-5-5-5---3-3-3--2-2-2--1-1-1-
G|----------------------------- x2
D|-----------------------------
A|-----------------------------
E|-----------------------------

E|--0-0-0--0-0-0--0-0-0--0-0-0-
B|-5-5-5---3-3-3--1-1-1--4-4-4-
G|-----------------------------
D|-----------------------------
A|-----------------------------
E|-----------------------------

E|--0-0-0--0-0-0--0-0-0--0-
B|-5-5-5---3-3-3--2-2-2--4-
G|------------------------------- F#m ! Em Em
D|-------------------------------
A|-------------------------------
E|-------------------------------

Em        G  Em             G
Открытая дверь   на свежей земле
  Em        Em7
Под землей кипит работа -
  A       Am
Бесы варят позолоту.
 Em           Em7
Там, в пещере, Алладин -
 A       Am
Всемогущ и невидим.
 Em         Em7
Там, внизу, твоя могила,
C       B7      Em     Em7
До свиданья, милый, милый,
A  B7
Милый.
F#m ! Em F#m !: Em F#m !: A F#m !: G 
Бывай!

Проигрыш: F#m !: Em F#m !: Em F#m !: A F#m !: G F#m !

Em      G Em               G
Отличная ночь для смерти и зла.
  
Em       Em7
На тебя роняет слезы
A       Am
Небо, а на небе – звезды
Em        Em7
Улыбаются во сне
A        Am
Человеку на Луне.
Em       Em7
Глубоко тебя зарыли,
C     B7      Em     Em7
До свиданья, милый, милый,
A  B7
Милый.
F#m ! Em F#m !: Em F#m !: A F#m !: G
Бывай!

Проигрыш: F#m !: Em F#m !: Em F#m !: A F#m !: G 

F#m        A  F#m         A
  Открытая дверь  на свежей земле
  F#m          F#m7
  Мы вколачиваем гвозди,
  B            Bbm
  Чтоб в гробу лежали кости.
  F#m         F#m7
  Чтоб из-под земли не лез
  B       Bbm
  На тебе поставлю крест.
  F#m          F#m7
  Трижды плюну на могилу,
  D   C#7          F#m F#m7
  До свиданья, милый, милый,
  D   C#7          F#m F#m7
  До свиданья, милый, милый,
  D   C#7          F#m F#m7
  До свиданья, милый, милый,
  Bb  C#7
  Милый. Бывай!

Заключение: G#m !: F#m G#m !: F#m G#m !: Bb G#m !: A }x3
            G#m !: F#m      
comments powered by Disqus
Наверх