Аккорды Алиса - Дурак

Добавлено: @Jlblcblu
Дата добавления: 16 Марта 2013г.
Рейтинг:
5.0
Просмотров: 1 230
Транспонировать - +
Вступление (сыграть 4 раза):

           C       G               Am      Em
e|-3-2-0---0---0----------------------------------(0)---(0)-------|
H|-------3-------3-0------(0)--------0----------(0)------(0)------|
G|----------------------(0)--------2---2-0----------------(0)-----|
D|-----------------------------------------2----------------------|

Em
  Как-то раз по весне ранней
  Поманила пожар-птица
  На дороги земли дурня -
  К солнцу тропы искать.

Проигрыш 1 = вступление (сыграть 2 раза).

  Над землей городов крыши,
  А над крышами дым-сажа,
  А над сажей - небес выше -
  Солнца белая рать.

Проигрыш 2 (сыграть 2 раза):

           Em              Am              Em              Am
e|-7-5-7-5-7---12------5-3-5---12------3-2-3---12------2-0-2---12-|
H|----------------------------------------------------------------|
G|----------------------------------------------------------------|

           C               Hm              Em
e|-----0---0---12--------------7---------------7------------------|
H|-------3-------------3-1-3-----------0---0----------------------|
G|---------------------------------------2------------------------|

  Сколько горя в нужде дурень мыкал,
  Износил сапогов сотни,
  А рубах изодрал столько,
  Сколько трав истоптал.

  По лесам собирал сказки,
  Да учился у птиц песням,
  Веселил городов толпы,
  Но ближе к солнцу не стал.

 Em
 Ох, тропинки-лесенки
                       Am Hm
 Прямо по земле в небеса,

 Как найти, увидеть,
 Да не проглядеть, не потерять.

  A          E
   А у неба радости -
           A             H           E
   Только солнцу глянешь утром в глаза,
   C             H
   Отвернешь, укроешься,
    C
   Да слезою вспыхнешь опять.
     Em
   Опять!
   Вот так!
   В сказку словом льемся.
   Вот так!
  H
   Смеемся!

            Em
   Ходит дурак по земле босиком,
   Берегами рек да опушкой леса.
    D         Em     Hm
   Веселит дурак почтенный народ
     D         Em          Hm
   Все да по площадям городов.

       Em
    И ты, как он, проходишь по земле,
    Ему, как всем, тебе, как всем, от рода по судьбе.
    Иди своей дорогой, ищи свою тропу,
        H                                   Em
    Найдет дурак, найдешь и ты, даст Бог, и я найду.

   Вот так!
   В сказку словом льемся.
   Вот так!
   Смеемся!

  Это только присказка, а сказка бежит речкой,
  Да дела не идут скоро.
  Ближе к солнцу не стал дурень,
  Но стал теплее сердцам.

  Где бы он ни сложил песню,
  Где бы ни проросло слово,
  Стелет в небо из звезд тропы
  По горячим следам.

  Стелет сквозь городов крыши,
  Выше крыш, да сквозь дым-сажу,
  Стелет даже небес выше -
  Солнца белая рать.

Проигрыш 2.

  Вот что сталось весной ранней -
  Заманила пожар-птица
  На дороги земли дурня -
     E       Em
  К солнцу тропы искать.

Кода = вступление.
Наверх