Аккорды Алиса - Черная метка

Добавлено: @romashka
Дата добавления: 16 Марта 2013г.
Рейтинг:
5.0
Просмотров: 1 211
Транспонировать - +
   A7              D
e|---------------|---2-----3-2---------|
b|-------2-3-2---|-----3---------------|
g|-----0-------0-|-------2-----0-------|
d|---2-----------|-0-------------------|
a|-0-------------|----------------0h2p-|
E|---------------|---------------------|

   A7                    D
e|---------------------|---2-----3-2---------------------|
b|-------2-3-2---------|-----3---------------------------|
g|-----0-------0-------|-------2-----0-------------------|
d|---2------------0h2p-|-0-------------0h2p0-------------|
a|-0-------------------|------------------------0h2p0----|
E|---------------------|---------------------------------|

   A7              D
e|--------------------|---2-----3-2---|
b|-------2-3-2--------|-----3---------|
g|-----0-------0------|-------2-----0-|
d|---2----------------|-0-------------|
a|-0------------------|---------------|
E|--------------------|---------------|
Чуткий час времени "Ч", звезд парча на моем плече.
В чарах порчи лечу в луче. Моя черная метка,
A5
метка...

/ I  A7                   D
| e|--------------------|---2-------3--2-----------------------|
| b|--------2-3--2------|-----3--------------------------------|
| g|-----0---------0----|-------2---------0--------------------|
| d|---2----------------|-0------------------------------------|
| a|-0------------------|--------------------------------------|
| E|--------------------|--------------------------------------|
|
| I
| e|--------------------|--------------------------------------|
| b|--------------------|--------------------------------------|
| g|--------------------|--------------------------------------|
| d|--------------------|-----0h4p0-5-5-4-2--------------------|
| a|-----0h4p0-5-4-0-0--|-------------------5-0-3-0-2-0--------|
| E|--------------------|--------------------------------------|
⁄

/ I  A7                              D
| e|-------------------------------|---2-----3-2---------------|
| b|--------2-3--2-----------------|-----3---------------------|
| g|-----0---------0---------------|-------2-----0-------------|
| d|---2---------------------------|-0-------------------------|
| a|-0-----------------------------|---------------------------|
| E|-------------------------------|---------------------------|
|
| II
| e|-------------------------------|---------------------------|
| b|-------------------------------|-----------------------7---|
| g|-------------------------------|---------------------7-----|
| d|-------------------------------|-----------------7-7-------|
| a|-----0h4p0-5-4-0-4-0-4-4-5-4-0-|-------------5-7-----------|
| E|-------------------------------|---------------------------|
⁄

/ I  A7                      D
| e|-----------------------|---2-----3-2---|
| b|-------2-3-2-----------|-----3---------|
| g|-----0-------0---------|-------2-----0-|
| d|---2-------------------|-0-------------|
| a|-0---------------------|---------------|
| E|-----------------------|---------------|
|
| II
| e|-----------------------|----------------------------------|
| b|-----------------------|----------------------------------|
| g|-----------------------|----------------------------------|
| d|-----------------------|-------------0h2p0----------------|
| a|------------/5p0-5p4p0-|-------------------4-3-0----------|
| E|-----------------------|----------------------------------|
⁄
Звездам ночь, свет отцу,     пыль дорог моему лицу.


/ I  A7                      D
| e|-----------------------|---2-----3-2---|
| b|-------2-3-2-----------|-----3---------|
| g|-----0-------0---------|-------2-----0-|
| d|---2-------------------|-0-------------|
| a|-0---------------------|---------------|
| E|-----------------------|---------------|
|
| II
| e|-----------------------|---------------|
| b|-----------------------|---------------|
| g|-----------------------|---------------|
| d|-----------------------|---------------|
| a|--------------4/5p4----|---------------|
| E|-----------------------|---------------|
⁄
До конца танцевать к концу.  Моя черная метка,
A5
Метка.
     G5            A5 D5
Моя черная метка - ROCK!
A5
Если ты знаешь как жить,
    G5         D5
Рискни ответить мне -
     A5  G5  G#5   A5  G5G#5A5G5G#5A5 C5A5
Кто мог бы стать твоим проводником в небо?

   A5   D5              A5 D5       A5  D5              C5
e|--------------------|-----------|-------------------|-------|
b|--------------------|-----------|-------------------|-------|
g|------7-5---5-------|-----------|-----7-5---5-------|-------|
d|--7-7-7---7---7-5---|-----7-----|-7-7-7---7---7-5---|-------|
a|--7-7-------------7-|-7-7-5---5-|-7-7-------------7-|-3-3-3-|
E|--5-5---------------|-5-5---5---|-5-5---------------|-------|

  2X
e|------------------|--------------------|
b|------------------|--------------------|
g|------------------|--------------------|
d|---7---7---7--7/8-|---7---7---7--7/8⁄7-|
a|---7---7---7--7/8-|---7---7---7--7/8⁄7-|
E|-5-5-5-5-5-5--5/6-|-5-5-5-5-5-5--5/6⁄5-|

e|------------------|--------------------|
b|------------------|--------------------|
g|------------------|--------------------|
d|---7---7---7--7/8-|---7---7---7--7/8⁄7-|
a|---7---7---7--7/8-|---7---7---7--7/8⁄7-|
E|-5-5-5-5-5-5--5/6-|-5-5-5-5-5-5--5/6⁄5-|
   Я сволочь весны,   я осени шлак

e|------------------------------|
b|------------------------------|
g|------------------------------|
d|---7---7---7---7----8-------7-|
a|---7---7---7---7----8-------7-|
E|-5-5-5-5-5-5-5-5----6-------5-|
Я тебе не друг и не враг, а так
      C5     H5       B5     A5
Мою кровь сосет придорожный мак.

e|---------------------------------|
b|---------------------------------|
g|---------------------------------|
d|-7-8-7-5-7-8-7-5-7-8-7-5-7-8-7-5-|
a|---------------------------------|
E|---------------------------------|
Моя черная метка,  черная метка.
Наверх