Аккорды Beyond The Black - In The Shadows

Добавлено: @romashka
Дата добавления: 11 Декабря 2019г.
Рейтинг:
0.0
Просмотров: 139
Транспонировать - +
Intro:
    F#  D#m      B       G#m   C#        
E|------6--6-7---6--6-7------7-6-6---|
B|--7-9--------9--------7-9--------9-|
G|-----------------------------------|
D|-----------------------------------|
A|-----------------------------------|
E|-----------------------------------|

        D#m      B       G#m   C#      D#m 
E|------6--6-7---6--6-7-------------------|
B|--7-9--------9--------7-9--7-6--7-6-6---|
G|--------------------------------------8-|
D|----------------------------------------|
A|----------------------------------------|
E|----------------------------------------|

Verse 1:
D#m                        C#
Now we're standing here together
C#                   D#m
At the crystal borderline
D#m                   C#
All my memories are shattered
C#                         D#m
Nothing's left of what was mine
D#m           G#m 
I'm tryin' to hold you
C#           D#m
But you slip away
D#m                    C#
А candle cannot burn forever
C#               G#m  A#
To whom am I to pray

Chorus:
      D#m           B
Up we rise into the night
B           G#m          C#
We'll never die in the shadows
       D#m           B
We can break out of these days
B              G#m           C#
Darkness will blaze in the shadows
D#m               B
Our kingdom will come
B         G#m             C#
When our dreams can grow wild
C#    D#m            B
Up we rise into the night
B            G#m C#  F#      D#m
We'll never   die   in the shadows

Verse 2:
D#m                       C#
It's so hard to kill the demons
C#                         D#m
When they live inside your heart
D#m                         C#
Don't give up to find your fortune
C#                           D#m
When you don't know where to start
D#m              G#m
So come here and take me
C#          D#m
I'm already gone
D#m                    C#
In a second life beside you
C#                   G#m  A#
Is where I want to belong

Chorus:
      D#m           B
Up we rise into the night
B           G#m          C#
We'll never die in the shadows
       D#m           B
We can break out of these days
B              G#m           C#
Darkness will blaze in the shadows
D#m               B
Our kingdom will come
B         G#m             C#
When our dreams can grow wild
C#    D#m            B
Up we rise into the night
B            G#m C#  F#      D#m
We'll never   die   in the shadows

Outro:
    F#  D#m      B     G#m   B С# D#m          
E|------6--6-7---6--6-7---6-----------|
B|--7-9--------9--------9----7-6-6----|
G|---------------------------------8--|
D|------------------------------------|
A|------------------------------------|
E|------------------------------------|  x2

F#  D#m B G#m B C# D#m
Up we rise
F#  D#m B G#m B
Up we rise
B   C#   D#m
In the shadows

Chorus:
      D#m           B
Up we rise into the night
B           G#m          C#
We'll never die in the shadows
       D#m           B
We can break out of these days
B              G#m           C#
Darkness will blaze in the shadows
D#m               B
Our kingdom will come
B         G#m             C#
When our dreams can grow wild
C#    D#m            B
Up we rise into the night
B            G#m C#  F#  C#  D#m
We'll never   die   in the shadows

F#  C#  D#m
In the shadows
Наверх