Аккорды Black Sabbath - Black Moon

Добавлено: @romashka
Дата добавления: 16 Марта 2013г.
Рейтинг:
0.0
Просмотров: 557
|------------------------------------------------------------
|------------------------------------------------------------
|------------------------/7-----------------5----------------
|-7--10--7-----2--5--7⁄--/7---7--10--7--5/7-------7--10--7---
|-7--10--7-----2--5--7⁄--/5---7--10--7--------8⁄5-7--10--7---
|-5---8--5-----0--3--5⁄-------5---8--5------------5---8--5---


1st time =======================||2nd time=======
|-------------------------------||---------------------------
|-------------------------------||---------------------------
|--------2-------------7--------||-----------2---4-----------
|-5------2------3------7------5-||-3----5----2---4--5--------
|---7⁄---0------3------5------5-||-3----5----0---2--5--------
|---------------1-------------3-||-1----3-----------3--------


|----------------------------------------------------------
|----------------------------------------------------------
|-------------------------------------------5--------------
|--2--5--7-----------2--5--7------------5/7----------------
|--2--5--7-----------2--5--7------------------8⁄5---0-3-0--
|--0--3--5-----------0--3--5-------------------------------
Музыка, подобно дождю, капля за каплей, просачивается в сердце и оживляет его (Роллан)
Мы стремимся к созданию контента, соответствующего всем нормам законодательства и уважающего интеллектуальную собственность. Мы также придаем большое значение тому, чтобы не задеть никого и не оскорбить чьи-либо чувства. Если у вас есть вопросы или претензии по размещенному материалу, пожалуйста, сообщите нам об этом на указанный адрес электронной почты: [email protected].
Шрифт
-
0
+
Прокрутка
-
0
+
Стоп
Наверх