Аккорды Black Sabbath - She's Gone

Добавлено: @romashka
Дата добавления: 16 Марта 2013г.
Рейтинг:
0.0
Просмотров: 867
E|--------0--------0--------0--------0-------0-------0-------0-------0-|
B|------0---0-------------0---0------------0---0-----------0---0-------|
G|---------------------------------------8-------8-------8-------8-----|
D|-9-------------9---9-------------9---9-----------9---9-----------9---|
A|---10-------10-------10-------10-------------------------------------|
E|---------------------------------------------------------------------|

E|---------0---------0---------0---------|
B|-------0---0---------------0---0-------|
G|----11-------11---------11-------11----|
D|-12-------------12---12-------------12-|
A|---------------------------------------|
E|---------------------------------------|

E|-0---------0---------0---------0---------0-|
B|---------0---0---------------0---0---------|
G|------12-------12---------12-------12------|
D|---11-------------11---11-------------11---|
A|-------------------------------------------|
E|-------------------------------------------|

E|--------0--------0-------0-------0-------0-------0-------0-------0-|
B|------0---0------------0---0-----------0---0-----------0---0-------|
G|----9-------9--------9-------9-------8-------8-------8-------8-----|
D|-10-----------10---8-----------8---9-----------9---9-----------9---|
A|-------------------------------------------------------------------|
E|-------------------------------------------------------------------|

E|-------0-------0-------0-------0-------2-------2-------2-------2-|
B|-----0---0-----------0---0-----------0---0-----------0---0-------|
G|---4-------4-------4-------4-------4-------4-------4-------4-----|
D|-2-----------2---2-----------2---0-----------0---0-----------0---|
A|-----------------------------------------------------------------|
E|-----------------------------------------------------------------|

E|-------5-----7---------5-----7---------5-----7---------5-----7---|
B|-----5---5-----5-----5---5-----5-----5---5-----5-----5---5-----5-|
G|---5-------5-------5-------5-------5-------5-------5-------5-----|
D|-7---------------6---------------5---------------4---------------|
A|-----------------------------------------------------------------|
E|-----------------------------------------------------------------|

E|-------0-------0-------0-------0-------0-------0-------0-------0-|
B|-----0---0-----------0---0-----------0---0-----------0---0-------|
G|---4-------4-------6-------6-------8-------8-------8-------8-----|
D|-5-----------5---7-----------7---9-----------9---9-----------9---|
A|-----------------------------------------------------------------|
E|-----------------------------------------------------------------|
Музыка доставляет удовольствие, без которого человеческая природа не может обойтись (Конфуций)
Мы стремимся к созданию контента, соответствующего всем нормам законодательства и уважающего интеллектуальную собственность. Мы также придаем большое значение тому, чтобы не задеть никого и не оскорбить чьи-либо чувства. Если у вас есть вопросы или претензии по размещенному материалу, пожалуйста, сообщите нам об этом на указанный адрес электронной почты: [email protected].
Шрифт
-
0
+
Прокрутка
-
0
+
Стоп
Наверх