Аккорды Black Sabbath - Odin's Court

Добавлено: @romashka
Дата добавления: 16 Марта 2013г.
Рейтинг:
0.0
Просмотров: 735
Intro & riff1

e|-------------------|------------------|
B|-------------------|--------1/3-------|
G|-----0—2/4--0--2---|-----0------2-4-0-|
D|---2-------------4-|---2--------------|
A|-------------------|------------------|
E|-0-----------------|-0----------------|
As you walk along, the night


e|-------------------|------------------|
B|-------------------|------------------|
G|-----0—-2/4--0-2---|-----0---2/4------|
D|---2-------------4-|---2--------------|
A|-------------------|------------------|
E|-0-----------------|-0----------------|
surrounds you...



Riff2:


e|-5-5-5---2---2---0---0-0----0-------------------|
B|-7-7-7---3---3---0---1-1------0-1---------------|
G|-7-7-7---4---2---0---2-2-----------2------------|
D|-7-7-7---4---0---2---2-2------------------------|
A|-5-5-5---2---0---2---0-0------------------------|
E|-5-5-5---2-------0---0-0------------------------|
Leading..
.. ..... ..

e|-5-5-5---2---2---0---0-0----0-------------------|
B|-7-7-7---3---3---0---1-1------1-----------------|
G|-7-7-7---4---2---0---2-2--------2---------------|
D|-7-7-7---4---0---2---2-2----------2-------------|
A|-5-5-5---2---0---2---0-0------------------------|
E|-5-5-5---2-------0---0-0------------------------|
Без музыки жизнь была бы заблуждением (Ницше)
Мы стремимся к созданию контента, соответствующего всем нормам законодательства и уважающего интеллектуальную собственность. Мы также придаем большое значение тому, чтобы не задеть никого и не оскорбить чьи-либо чувства. Если у вас есть вопросы или претензии по размещенному материалу, пожалуйста, сообщите нам об этом на указанный адрес электронной почты: [email protected].
Шрифт
-
0
+
Прокрутка
-
0
+
Стоп
Наверх