Аккорды Black Sabbath - Killing Yourself to Live

Добавлено: @romashka
Дата добавления: 16 Марта 2013г.
Рейтинг:
0.0
Просмотров: 602
Intro 2x
||-----------5-6-------------5------------------------5---
||--------7------5-7--7----5---5-----------7--7-7---5---5-
||-----------------------7-------5--5-7--7--------7-------
||-----5--------------------------------------------------
vocal riff
-------5-6-------------5--------------------||---------7/9
----7------5-7--7----5---5-----------7--7-7-||------------
-------------------7-------5--5-7--7--------||-5/7⁄5-5----
-5------------------------------------------||------------

⁄7---7----------------------7/9⁄7---7---------------||----
-------------5-7-3--------------------------5-7-3---||----
---5---5/7⁄5--------5/7⁄5-5-------5---5/7⁄5---------||----
----------------------------------------------------||-10-
Killing your self to live___________
----------------------------------------------------------
---------------------------------------------8-8-8-8-7-7-7
-------------------------8-8------------------------------
10-10-10-10⁄--10-8-8-8-8-----8⁄-7-7-7-7-7⁄-7--------------

---||-----------------------------------------------------
-7-||-----------------------------------------------------
---||-0-----0---0---0---0----0-0-0-0-0-0-0-0-0-0-0-0-0-0-0
---||-----------------------------------------------------
hold this for a long time
----------|-----------------------------------------------
----------|5h7-7-7-7-5h7-7-7-7-5h7-7-7-7-5h7-7-5---5h7-7-7
0-0-0-0-0-|--------------------------------------7--------
----------|-----------------------------------------------

---------------------------------||------7--7-5h6p5-------
-7-5h7-7-7-7-5h7-7-7-7-5h7-7-5---||-7--7------------7-7--7
-------------------------------7-||-----------------------
---------------------------------||-----------------------
sometmes ending w/ this 2nd solo
-7--7-5h6p5-|--------------------7--7-5h6p5------||-------
------------|-5------5------7--7------------7-7--||-------
------------|------------------------------------||---5-3-
------------|----8------8------------------------||-5-----
& vocal riff outro
--------------||----------------------------------------||
--------------||----------------------------------------||
-0------5-3-0-||-5--5--------------5--5-------------5--5||
---5--5-------||----------------------------------------||
look out, the main riff is a little tricky
Но если и музыка нас оставит, что будет тогда с нашим миром? (Гоголь)
Мы стремимся к созданию контента, соответствующего всем нормам законодательства и уважающего интеллектуальную собственность. Мы также придаем большое значение тому, чтобы не задеть никого и не оскорбить чьи-либо чувства. Если у вас есть вопросы или претензии по размещенному материалу, пожалуйста, сообщите нам об этом на указанный адрес электронной почты: [email protected].
Шрифт
-
0
+
Прокрутка
-
0
+
Стоп
Наверх