Аккорды «Blink 182»

Blink 182
Панк-трио Blink появилось на свет в 1991 году в Сан-Диего, штат Калифорния, стараниями гитариста Тома Делонжа и басиста Марка Хоппуса, с детства мечтавших о собственной группе. Дебютный EP `Fly Swatter` был выпущен в 93-м на средства участников группы, а уже через год за ним последовал полноценный альбом `Buddha`. После этого музыкантам пришлось отказаться от своего названия, дабы избежать судебного разбирательства с группой Blink из Ирландии. Проблема решилась незамедлительно: в историю было суждено… Читать полностью... Панк-трио Blink появилось на свет в 1991 году в Сан-Диего, штат Калифорния, стараниями гитариста Тома Делонжа и басиста Марка Хоппуса, с детства мечтавших о собственной группе. Дебютный EP `Fly Swatter` был выпущен в 93-м на средства участников группы, а уже через год за ним последовал полноценный альбом `Buddha`. После этого музыкантам пришлось отказаться от своего названия, дабы избежать судебного разбирательства с группой Blink из Ирландии. Проблема решилась незамедлительно: в историю было суждено войти первому же пришедшему в голову приятелей цифровому сочетанию 182. Вхождению в историю изрядно способствовал выбранный момент - по миру только что прогремели альбомы `Dookie` Green Day и `Smash` The Offspring, что позволило музыкальной критике говорить о `втором пришествии панк-рока`, который, впрочем, куда чаще стали называть поп-панком. Так или иначе, в течение нескольких лет в активе Blink 182 появились первый серьезный контракт, два полнометражных альбома и ряд совместных турне с коллегами по цеху. Второму всплеску интереса к собственным персонам участники трио вновь были обязаны более старшим коллегам, на сей раз уже одним только The Offspring, вторично шокировавшим шоу-бизнес пластинкой `Americana`. Заменив барабанщика и заполучив нового продюсера (ранее работавшего с Rancid и все теми же Green Day), Blink 182 записывают очередной лонгплей `Enema Of The State`, на протяжении следующего года не покидавший чарт Billboard и разошедшийся по планете 7-миллионным тиражом. Синглы `What's My Age Again`, `All The Small Things` и `Adam's Song` расходятся на саундтреки к молодежным комедиям, с утра до вечера звучат на MTV и собирают массу наград типа Blockbuster Music Award и Teen Choice Award. В этой ситуации далеко не каждый оценил юмор Blink 182, в клипе `All The Small Things` `проехавшихся` по прочим кумирам тинэйджеров вроде Бритни Спирс и Backstreet Boys. Клип, впрочем, был признан лучшим видео года на MTV Music Awards. Даже издававшийся под видом коллекционно-подарочного раритета сборник концертных записей `The Enema Strikes Back` за кратчайший срок был распродан общим тиражом в полтора миллиона экземпляров. В 2001 году группа представила на суд публики очередной альбом `Take Off Your Pants & Jacket`, оказалась на саундтреке и к сиквелу молодежного кинохита `Американский пирог`, а заодно отметила свадьбу Делонжа, на которую его невеста пригласила кумиров детства Тома, музыкантов Jimmy Eat World. Тем временем младшая сестра Хоппуса Энн (некогда познакомившая музыкантов друг с другом) написала книгу о том, `как все начиналось`. Как и все, на чем написано `Blink 182`, книга не могла не стать бестселлером. Последний альбом Blink-182 (Blink-182) открыл публике новое звучание этой группы. Альбом более эмоциональный, серьёзный, проникновенный. До сих пор этот альбом не имеет аналогов в панк-среде. Blink-182 также выпустили сборник лучших песен "Greatest Hits", куда вошли неиздававшиеся песни Not Now и Another Girl, Another Planet, а также был выпущен DVD "Greatest Videos". До сих пор многие группы называют себя наследниками Blink-182, и говорят об огромном влиянии на сегодняшнюю панк-сцену. К примеру, это такие группы, как Fall Out Boy и Panic!At the Disco. Но к всеобщему разочарованию, группа взяла отпуск на неопределённый срок в 2005 году, и разделилась на группы +44, в состав которой вошёл Марк и Трэвис и на Angels & Airwaves, куда ушёл Том... Сейчас в 2009 году музыканты группы Blink 182 снова вместе, они уже отыграли первый совместный концерт за долгое время, он прошел в голливуде на территории студии Парамаунт. Как только Dj AM и барабанщик Blink-182 Тревис Баркер завершили свое выступление, на сцену вышли остальные участники группы,Том Делонг и Марк Хоппус. Концерт начался с песни «The Rock Show», после чего Хоппус выкрикнул «Это наше первое выступление после долгих лет взаимной ненависти». Далее прозвучала композиция 2003 года «Feeling This» и один из первых хитов «Dammit». в конце июля Blink-182 вместе с Fall Out Boy отправляются в турне, а 19 мая воссоединившаяся группа отыграет на «Шоу Джея Лено». Скрыть...
Популярные аккорды Blink 182:
алфавиту | просмотрам | случайно
  • v1 C Am Em
    i never thought i'd die alone
    F C
    i laughed the loudest who'd have known
    Am Em
    i traced the chord back to the wall
    F C
    no wonder it was never plugged in at all
    Am Em
    i took my time i hurried up
    F C
    i choice was…
  • Intro: Guitar 1
    e|-------------------------------------------------------------|
    B|-------------------------------------------------------------|
    G|-------------------------------------------------------------|
    D|-------------------------------------------------------------|
    A|12-12-12-10-10-10-9-12-12-12-10-10-10-9-4-4-4-5-5-5-7-4-4-4-5|
    E|-------------------------------------------------------------|
    
    E|-------|
    B|-------|
    G|-------|
    D|-------|
    A|-5-5-7-|
    E|-------|…
  • Intro (x2):
    
    e|-------------------------------------------------------|
    B|-------------------------------------------------------|
    G|-----------------5--------10---------------------------|
    D|-(5)-----(3)-----5 (x8)---10…
  • Riff A
    intro
    g|-444444444444--4-|
    d|-444444444444--x-|
    a|-222222222222--2-|
    e|-----------------|
    
    Riff B
    Verse (2x)
    g|-44444444----------------------------|
    d|-44444444-44444444-66666666-22222222-|
    a|-22222222-44444444-66666666-22222222-|
    e|----------22222222-44444444-00000000-|…
  • Verse
    G|---------------------| |-------------------------------|
    D|---------------------| x5 |-------------------------------|
    A|-4444------6666-8888-| |-4444------6666-6666-8888-8888-|
    E|------4444-----------| |------4444---------------------|
    
    Chorus
    G|---------------------|…
  • Intro 1:
    e|-3---3---1---1---0---0---1---1---|
    B|---1---1---1---1---1---1---1---1-|
    G|---------------------------------|
    D|---------------------------------|
    A|---------------------------------|
    E|---------------------------------|
    
    Intro…
  • Intro
    
    E|--------------------------------------|
    B|-4--~----4--~----4--~----4--~---------|
    G|-4-------4-------4-------4------------|
    D|-X-------X-------X-------2------------|
    A|-2-------4-------X-------2------------|
    E|-----------------4-------0------------|…
  • Main Riff:
    
    E|-----------------------------------------------------|
    B|-----------------------------------------------------|
    G|-----------------------------------------------------|
    D|-----------------------------------------------------|
    A|-------5-5--7--------5-5--7--------5-5-7--8-8-7-7--5-|
    E|-8-8------------3-3-----------5-5--------------------|…
  • Intro(Repeat 2X)
    e|------------------------------------|
    B|-4-4-4-4--2-2-2-2--4-4-4-4--2-2-2-2-|
    G|-4-4-4-4--4-4-4-4--4-4-4-4--4-4-4-4-|
    D|------------------------------------|
    A|------------------------------------|
    E|------------------------------------|
    
    e|------------------------------------|
    B|-4-4-4-4--2-2-2-2--4-4-4-4--2-2-2-2-|
    G|-4-4-4-4--4-4-4-4--4-4-4-4--4-4-4-4-|
    D|-2…
  • E|---|
    B|---|
    G|-5-|
    D|-5-|
    A|-3-|
    E|---|
    
      In the car i jast...
    E|--------------|
    B|--------------|
    G|-55--55-55-55-|
    D|--------------|
    A|--------------|
    E|--------------|
       ПРИПЕВ.
    E|--------------------|
    B|------------222-----|
    G|-5-5----5-5-222-----|
    D|-5-5----5-5-222-3-5-|…
  • Intro:
    e|-------------------------------------------------------------|
    B|-------------------------------------------------------------|
    G|--1-1h2p1---------1-1h2p1------2-1-1h2p1-------2-1-1h2p1-4---|
    D|2-----------4-2-2------------4-2-----------4-2-2------------4|
    A|2--------2-0----2---------2-0--0--------2-0----0----------2--|
    E|0---------------0--------------------------------------------|
    
    Interlude…
  • Intro
    E|-------------------------------------------------------------------
    B|-------------------------------------------------------------------
    G|-------------------------------------------------------------------
    D|-2~~--3-3-3-2-0------5---3---2------------------------------------…
  • Intro:
    
    e|----------------------------|
    B|----------------------------|
    G|--11--999-----------9/--13--|
    D|--11--999-----0-----9/--13--|
    A|--9---777-----0-----7/--11--|
    E|--------------0-------------| (x2) (at 11, don't strum,…
  • INTRO:
    D|-444444-555555-444444-XX7XX7-44444-XX7XX7------------------|
    A|-555555-555555-555555-XX7XX7-55555-XX7XX7------------------|
    E|--------333333--------XX5XX5-------XX5XX5------------------|
    
    INTRO SOLO:
    E|-151515-141414------------141414-151515------------151515--|
    B|---------------1515151515---------------1515151515---------|
    
    E|-141414------------141414-151515-14-14-15-14---------------|
    A|--------1515151515--------------------------15-------------|
    
    G|-77777-------77777---------777777--------------------------|
    D|-77777-55555-77777-444-222-777777-444-222-----555555-------|
    A|-55555-55555-55555---------555555-------------555555-------|
    E|-------33333-------------------------------PM…
  • Intro
    
    first play this
    G---7-----7-----7-----7---7----
    D-0---0-0---0-0---0-0---0---0--
    A------------------------------
    E------------------------------
    
    Then the bass changes and plays this
    G---7-----9-----11-----12---11---9-----7-----9-----11-----12--14---12---
    D-0---0-0---0-0----0-0----0----0---0-0---0-0---0-0----0-0----0---0----0-
    A-----------------------------------------------------------------------
    E-----------------------------------------------------------------------
    
    Intro…
  • Riff 1:
    G:---------------------------------------
    D:---------------------------------------
    A:--------------------00000000-3333-5555-
    E:33333333-5555-3333---------------------
    
    Riff 2:
    G:------------------------------------------
    D:------------------------------------------
    A:----------------000000000000000-3333-5555-
    E:333333333333333---------------------------
    
    Riff…
  • Строй :EADGBE
    
    Intro Pt. 1                Intro Pt.2
    E|---------------------------------------|
    B|---------------------------------------|
    G|---------------------------------------|
    D|-------------0---0-0-------------------|
    A|-0-0---7---0---0-----------0-0---7---7-|
    E|-----9---9---------------------9---9---|
    
    Riff…
  • Intro:
    e|-------------------|
    B|-------------------|
    G|-11/9-0-9-⁄13-⁄9---|
    D|-11/9-0-9-⁄13-⁄9---|
    A|--9/7-0-7-⁄11-⁄7---| X2
    E|-------------------|
    
    Verse:
    e|-----------------|
    B|-----------------|
    G|-11/9-0-9-⁄13-0--|
    D|-11/9-0-9-⁄13-0--|
    A|--9/7-0-7-⁄11-0--|…
  • Intro
    e|-------------------------------------------------------------|
    B|-------------------------------------------------------------|
    G|-------------------------------------------------------------|
    D|-----2-----2-----2-----2-----2-------2------2-------2------2-|
    A|-0-0---0-0---0-0---0-0---0-0----0-0----0-0-----0-0----0-0----|
    E|-------------------------------------------------------------|
    
    e|-------------------------------------------------------------|
    B|-------------------------------------------------------------|
    G|-------------------------------------------------------------|
    D|-------------------------------------------------------------|
    A|-----2-----2-----2-----2-----2-------2------2-------2------2-|
    E|-0-0---0-0---0-0---0-0---0-0----0-0----0-0-----0-0----0-0----|…
  • Cm# Gm# Fm# Gm#
    E|-4---4--2---4-|
    B|-4---4--2---4-|
    G|-6---4--2---4-|
    D|-6---6--4---6-|
    A|-4---6--4---6-|
    E|-4---4--2---4-|
    
    Hanging out behind the club on the weekends
    Acting stupid, getting drunk with my best friends
    I…
  • H                H\\a#                          G#m7          H\\a#                    
    Hello there, the angel from my nightmare the shadow in the background of       
    The mourge,the unsuspecting victim of darkness in the…
  • It'll be nice to have a blow job,
    Am             C
    It'll be nice to have a blow job,
    Am              C
    It'll be nice to have a blow job,
    Am              C
    It'll be nice to have a blow job,
    Am               C
    It'll be nice…
  • Intro:
    e|-----------------------------------------------------------|
    B|-----------------------------------------------------------|
    G|-----------------------------------------------------------|
    D|-----------------------3-----3---3-------------------------|
    A|-----3-----3---3-/-1-1---1-1---1---/-----3-----3---3-/-1-1-|
    E|-1-1---1-1---1---/-----------------/-1-1---1-1---1---/-----|
    
    E|-------------|…
  • Главная Мелодия:
    
    E|---------------------------------------------------------|
    B|---------------------------------------------------------|
    G|---------------------------------------------------------|
    D|--0--7-0-0-4-0--0--7-0-0-4-0--0--4-0-0-5-0--0--2-2-4-2-0-|
    A|-5-5-----------4-4-----------2-2-----------0-0-----------|
    E|---------------------------------------------------------|…
  • Bass intro:
    G|---------------------------------------------|
    D|---------------------------------------------|
    A|-----3--------3--------7--------3------------|
    E|-0-0---0--3-3---3--5-5---5--1-1---1----------|
    
    Geetar intro:
    e|---------------------------------------------|
    B|--5-5-5-5-5--10-10-9-5-5-5--5-5-5-5-4-5------|
    G|---------------------------------------------|
    D|---------------------------------------------|
    A|---------------------------------------------|
    E|---------------------------------------------|
    
    Verse…
  • [Intro]
    e|----------------------------------------------------------------|
    B|----------------------------------------------------------------|
    G|----------------------------------------------------------------|
    D|-04----04/-06-07----07/-09-11----11/-12-09----09---444--666-----|X2
    A|-xx----xx/-xx-xx----xx/-xx-xx----xx/-xx-xx----xx---xxx--xxx--2*-|
    E|-02----02/-04-05----05/-07-09----09/-10-07----07---222--444--0*-|
    |…
  • INTRO
    G:---------------------------------------------------:
    D:---------------------------------------------------:
    A:000000000000000000000000055555555555555555555555555:
    E:---------------------------------------------------:
    VERSE1
    G:------------------------------------------------------:
    D:------------------------------------------------------:
    A:0000000000000--------------666666666666664444444444444:
    E:-------------77777777777777---------------------------:
    VERSE2/CHORUS1
    G:------------------------------------------------------:
    D:------------------------------------------------------:
    A:0000000000000--------------555555555555554444444444444:
    E:-------------77777777777777---------------------------:
    CHORUS2
    G:----------------------------:
    D:----------------------------:
    A:0000000000000000000-7-5-75--:
    E:--------------------------75:
    VERSE4
    G:-----------------------------------------------:
    D:-----------------------------------------------:
    A:0-000-7h9-0-000-5h7-0000007777-4444------------:
    E:-----------------------------------------------:
    RIFF1
    G:-----------------------------:
    D:-----------------------------:
    A:00------66-44—-00------55-44-:
    E:----77-------------77--------:
    END.
    G:------------------------------:
    D:------------------------------:
    A:0-00-0-00-00----666444--------:
    E:------------7-77--------------:…
  • INTRO
    E|-----------------|
    B|------7~---------|
    G|--7--------7---6-|
    D|----0--------0---|
    A|-----------------|
    E|-----------------|
    
    VERSE (With Digital effects)
    E|-----------------------------------|
    B|-----------------------------------|
    G|--7-7-7-7-6-6-6-6-4-4-4-4-6-6-6-6--|
    D|--7-7-7-7-6-6-6-6-4-4-4-4-6-6-6-6--|
    A|--5-5-5-5-4-4-4-4-2-2-2-2-4-4-4-4--|
    E|-----------------------------------|
    
    Pre-Chorus…
  • CHORDS
    
       C   G   A   Fii  F   Gii
    E|-------------------------|
    B|-------------------------|
    G|-5-----------10-------12-|
    D|-5---5---7---10---3---12-|
    A|-3---5---7---8----3---10-|
    E|-----3---5--------1------|
    
    Riff:
    
    E|-1--3---1--3---1--3---0---0---0-|
    B|------1------1------1---1---1---|
    G|--------------------------------|
    D|--------------------------------|
    A|--------------------------------|
    E|--------------------------------|
    
    Intro:…
  • e-----------------------------------------------------------
    b--------10-10-10--12-12-12-12-12-12-12-12-12-12------------
    g--9-9-9----------------------------------------------------
    D-----------------------------------------------------------
    A-----------------------------------------------------------
    E-----------------------------------------------------------
    
    e-----------------------------------------------------------
    b--------10-10-10--12-12-12-10-10-10-10-10-10-10------------
    g--9-9-9----------------------------------------------------
    D-----------------------------------------------------------
    A-----------------------------------------------------------
    E-----------------------------------------------------------
    
    thats…
  • A5                 H5
    Shit piss fuck cunt cocksucker
                  C#5               D5
    motherfucker tit fart turd and twat
    Shit piss fuck cunt cocksucker
    motherfucker tit fart turd and twat
    Shit piss fuck cunt cocksucker
    motherfucker…
  • Intro
    e|--------------------|
    B|--------------------|
    G|--------------------|
    D|-7-7-7-7-7-7-7------|
    A|------------------0-|
    E|--------------------|
    
    Играем мелодию дважды
    
    Мелодия (играется вместе с бас-гитарой)
    e|---------------------------------|
    B|---------------------------------|
    G|------9-------9------9--------9--|
    D|-7-7---7-7-7---------7---------7-|
    A|---------------------------------|
    E|-----------------9-9----10-10----|
    
    дальше…
  • E|-----------------------|
    B|-----------------------|
    G|-5-----------7--10-----|
    D|-5---7---3---7--10---5-|
    A|-3---7---3---5---8---5-|
    E|-----5---1-----------3-|
    
    INTRO:
    
    C5 (let it fade)
    She didn?t mean to deceive you,…
  • G|-------------------------------------------------------------|
    D|2-2-2-2-2-2-2-2----------------------------------------------|
    A|----------------2-2-2-2-2-2-2-4-4-4-4-4-4-4-4-0-0-0-0-0-0-0-0|
    E|-------------------------------------------------------------|
    
    G|-------------------------------------------------------------|
    D|-------------------------------------------------------------|
    A|----------------2-2-2-2-2-2-2-4-4-4-4-4-4-4-4-0-0-0-0-0-0-0-0|
    E|0-0-0-0-0-0-0-0----------------------------------------------|
    
    Chorus
    G|--------------------------------|
    D|--------------------------------|
    A|------------------------2-2-2-2-|
    E|2-2-2-2-5-5-5-5-0-0-0-0---------|…
  • Intro x2
    G|-----------------------------------------|
    D|-----------------------------------------|
    A|----0-000----5-555----2-222----5555-7777-|
    E|-----------------------------------------|
    I think Mark pretty much lets each…
  • Intro        Куплет        Intro 2   Chorus
    e|------------------------------------------------------|
    B|------------------------------------------------------|
    G|--(7)-(9)--2-2-7-------7------(7)-(9)--2-7------------|
    D|-7-7-7-9---2-2-7-9-7-7-7-9---7-7-7-9---2-7-7-2--------|
    A|-4-5-7-7---0-0-5-9-7-7-5-9---4-5-7-7---0-5-7-2--------|
    E|-----5-----------7-5-5---7-------5---------5-0--------|…
  • Bass
    -------------------------------------------------------------
    -------------------------------------------------------------
    ---3-----3-----3-----3------0--2-repeat throught song(mostly)
    ------3-----3-----3------3-----------------------------------
    
    guitar
    --------------------------------------------------------
    ------------------------------------5-------------------
    ------------------0-----------------5-------------------
    ------------------2-----------------3-------------------
    --------0--2--3------------0--2--3-------------0--2--3--
    -----3------------------3-------------------3-----------
    
    
    ------------------------------------------------------------------repeat…
  • Intro:
    E||------------------||
    B||------------------||
    G||------------------||
    D||---2--2-2--2-22-2-||
    A||---4--4-4--0-00-0-||
    D||---0--0-0--3-33-3-||
    
    Verse:
    E||--------------------------||    ||-------|| THis Version I…
  • Riff A Pt.1
    E|-------------------------------------------------|
    B|-------------------------------------------------|
    G|-44444-44444-44444-44444-------------------------|
    D|-44444-44444-44444-44444-22222-22222-22222-22222-|
    A|-22222-22222-22222-22222-22222-22222-22222-22222-|
    E|-------------------------00000-00000-00000-00000-|
    
    Riff…
  • CHORDS
    
    G D C
    
    E|--------------|
    B|--------------|
    G|------- 7---5-|
    D|---5---7---5--|
    A|---5---5---3--|
    E|---3----------|
    
    G D C
    13 miles down the road theres a young boy
    G D C
    Hes got jack black hair and blue-green eyes…
  • e|-----0-----------------0-----------------0-----------------0---------------|
    B|--------------2-----------------2-----------------2-----------------2------|
    G|---2---2----2---2----2---2----2---2----2---2----2---2----2---2----2---2----|
    D|-------------------------------------0--------0--------0--------0----------|
    A|-2--------2--------2--------2----------------------------------------------|
    E|---------------------------------------------------------------------------|
    
    e|-----0-----------------0---------------------------------------------------|
    B|--------------2-----------------2---------2-----2----2-2-2-2---------------|
    G|---2---2----2---2----2---2----2---2-----2-----2----2---2-2-2---------------|
    D|--------------------------------------0-----0----0-----0-0-0---------------|
    A|-0--------0--------2--------2----------------------------------------------|
    E|---------------------------------------------------------------------------|
    -----------------------------------------------------------------------------|
    
    This…
  • Verse:
    e|---------------------------------------------------|
    B|---------------------------------------------------|
    G|---------------------------------------------------|
    D|--------------5--5--5--5----------------7--7--7--7-|
    A|-2--2--2--2---3--3--3--3---5--5--5--5---5--5--5--5-|
    E|-0--0--0--0----------------3--3--3--3--------------|
    
    Solo:
    e|---------------------------------------------------|
    B|---------------------------------------------------|
    G|-4-4-4-4-7-7-7-5-4-----------4-5-7-5-4-----4-5p4---|
    D|-------------------7-7-7-5-7-----------5-7-------5-|
    A|---------------------------------------------------|
    E|---------------------------------------------------|
    
    Chorus:
    e|---------------------------------------------------|
    B|---------------------------------------------------|
    G|---------------------------------------------------|
    D|-5--5--5--5-----------------------------5--5--5--5-|
    A|-3--3--3--3---5--5--5--5---2--2--2--2---3--3--3--3-|
    E|--------------3--3--3--3---0--0--0--0--------------|…
  • Intro: (2x) strummed fast using up/down strokes
    E|----------------------------------------------------------|
    B|----------------------------------------------------------|
    G|----------------------------------------------------------|
    D|----------------------------------------------------------|
    A|-9-9-9-9-9------------10-10-10-10--9-9-9-9-9--------------|
    E|------------10-10-10--------------------------10-10-10-10-|
    
    e|-------------------------------------------------|
    B|-------------------------------------------------|
    G|-------------------------------------------------|
    D|------------4-4-4-4--------------4-4-4-4-4-4-4-5-|
    A|-------------------------------------------------|
    E|-3-3-3-3-------------5-5-5-5---------------------|
    
    Intro…
  • verse
    E-----------------------------
    B-----------------------------
    G-----------------------------
    D---3-------1------3-3--------
    A-3---3---1---1----3-3--------
    E-------3-------1--1-1--------
    
    chorus
    E-----------------------------
    B-----------------------------
    G-----------------------------
    D-7-7-5---5-3-7---------------
    A-7-6-5---5-3-7---------------
    E-5-5-3-0-3-1-5---------------
    
    interlude
    E-----------------------------
    B-----------------------------
    G-----------------------------
    D-----------------------------
    A-7-7---7-7---7-7---9-9-------
    E-----5-----5-----7-----7-----
    
    end…
  • E|------------|-------|----|
    B|----0-----0-|-------|----|
    G|------0-----|---0---|---2|
    D|--0-----0---|-----2-|-0--|
    A|------------|-3-----|----|
    E|------------|-------|----|
    
    I wanna fuck a dog in the ass
    (he wants to fuck…
  • H = HIT
    
    1
    e|---------------------------------------|
    B|-8---8---6---6---5---5---6---6---|
    G|---5---5---5---5---5---5---5---5-|X4
    D|---------------------------------------|
    A|---------------------------------------|
    E|---------------------------------------|
    
    2
    e|--------------------------------------------------------------|
    B|-----2H3-----2-----2H3----2-----2H3----2----0---0-|
    G|-33-------33---33-------33---33------33---33--33--|X4
    D|--------------------------------------------------------------|
    A|--------------------------------------------------------------|
    E|--------------------------------------------------------------|
    
    3
    e|------------------------------------------------------------------------|
    B|-----------------------------------------------------------------------|
    G|-9…
  • Intro
    
           listen for the timing it's a bit tricky		
    e|--------------------------------------------------------|
    B|--------------------------------------------------------|
    G|--------------------------------------------------------|
    D|-5-----55-----5-----55----------------------------------|
    A|-3-----33-----3-----33----------------------------------|
    E|--------------------------------------------------------|
    
    
    			Chorus…
  • INTRO
    e|--------------------------------------
    B|--------------------------------------
    G|-66966-66966-777777-66966-999777-66966
    D|-77777-77777-777777-77777-999777-77777
    A|--------------------------------------
    E|--------------------------------------
    
    VERSE…
  • B5  C#5  E5  Em  F#5  G#5
    E|--------------------------|
    B|--------------------------|
    G|--4----6---9--------------|
    D|--4----6---9---2----4---6-|
    A|--2----4---7---2----4---6-|
    E|---------------0----2---4-|
    
    Play B5 12 times…
  • mute every other time
    
    e|-----------|
    B|-----------|
    G|-----------|
    D|-----------|
    A|-0-0-0-0-0-| X3
    E|-0-0-0-0-0-|
    
    then
    
    e|-----------------|
    B|-----------------|
    G|-----------------|
    D|-----------------|
    A|-3-3-3-3-2-2-2-2-|
    E|-3-3-3-3-2-2-2-2-|…
  • Intro:
    e|---------------------|
    B|---------------------|
    D|-9999------9999------|
    G|-9999-3333-9999-3333-|
    A|-7777-3333-7777-3333-|
    E|-8888-1111-8888-1111-|
    
    Verse:
    e|-----------------------|
    B|-----------------------|
    D|-----------------------|
    G|-10-10-9/12-12-3-3-3-3-|
    A|-x--x--x-x--x--x-x-x-x-|
    E|-8--8--7/10-10-1-1-1-1-|…
  • Intro (Distorted):
    e|---------------------------------|
    B|---------------------------------|
    G|-11-11-11-7-7-7777-77-9-11-7-7/9-|
    D|-x--x--x--x-x-xxxx-xx-x-x--x-x-x-|
    A|-9--9--9--5-5-5555-55-7-9--5-5/7-|
    E|---------------------------------|…
  • Standard Tuning (EADGBE)
    
    --------------------------------------------------------|
    --------------------------------------------------------|
    --4-----------------------------------------------------|
    --4---4-------6---2-------------------------------------|
    --2---4-------6---2-------------------------------------|
    ------2-------4---0-------------------------------------|
    
    --------------------------------------------------------|
    --------------------------------------------------------|
    --4-----------------------------------------------------|
    --4--4--2--4--------------------------------------------|
    --2--4--2--4--------------------------------------------|
    -----2--0--2--------------------------------------------|
    
    --------------------------------------------------------|
    --------------------------------------------------------|
    --4---------twice---4-----------4------4----------------|
    --4--4--2-----------4--4--2--4--4------4----------------|
    --2--4--2-----------2--4--2--4--2------2----------------|
    -----2--0--------------2--0--2--------------------------|…
  • CHORDS:
       B5   C#5  E5  Em  F#5  G#5
    E|----------------------------|
    B|----------------------------|
    G|--4----6---9----------------|
    D|--4----6---9---2----4---6---|
    A|--2----4---7---2----4---6---|
    E|---------------0----2---4---|
    INTRO:…
  • Intro part 1 (dist.)          (1 time)                            
    e|-------------------------|
    B|-------------------------|
    G|-------------------------|
    D|66---44---44---4----4----|
    A|66---44---44---4----4----|
    E|44-0-22-0-11-0-2----2----|
    
    Intro…
  • E|--------------------|
    B|--0-----------------|
    G|----0--0------------|
    D|-0----0-----5-----7-|
    A|----------3---3/5---|
    E|--------------------|
    
    E|--------------------|
    B|---0----------------|
    G|----0--0------------|
    D|-0----0-----5-----7-|
    A|----------3---3/5---|
    E|--------------------|
    
    E|--------------------|
    B|---0----------------|
    G|----0--0------------|
    D|-0----0-----5-----7-|
    A|----------3---3/5---|
    E|--------------------|
    
    E|--------------------|
    B|--0-----------------|
    G|----0--0------------|
    D|-0----0-----5-----7-|
    A|----------3---3/5---|
    E|--------------------|
    
    E|--------------------|
    B|--------------------|
    G|---4-0--0-----------|
    D|-0----0-----5-----7-|
    A|----------3---3-5---|
    E|--------------------|
    
    E|--------------------|
    B|--------------------|
    G|---4-0--0-----------|
    D|-0----0-----5-----7-|
    A|----------3---3-5---|
    E|--------------------|
    
    E|--------------------|
    B|--------------------|
    G|---4-0--0-----------|
    D|-0----0-----5-----7-|
    A|----------3---3-5---|
    E|--------------------|
    
    E|--------------------|
    B|--------------------|
    G|---4-0--0-----------|
    D|-0----0-----5-----7-|
    A|----------3---3-5---|
    E|--------------------|
    
    E|--------------------|
    B|--------------------|
    G|---4-0--0-----------|
    D|-0----0-----5-----7-|
    A|----------3---3-5---|
    E|--------------------|
    
    E|--------------------|
    B|--------------------|
    G|---4-0--0-----------|
    D|-0----0-----5-----7-|
    A|----------3---3-5---|
    E|--------------------|
    
    you…
  • gtrs. 1 & 2
    E|-----------|---------------|-----------|---------------|
    B|-----------|---------------|-----------|---------------|
    G|---------^-|---------------|-----------|---------------| Play
    D|-4-4-4-4-4-|-4-4-4-4-4-4-4-|---------^-|---------------|…
  • INTRO: (x2)
    
    E|---------------|
    B|---------------|
    G|----7-6--7-6---|
    D|----7-7--7-7---|
    A|-0-------------|
    E|---------------|
    
    Riff #1: (listen to the song for the exact picking)
    
    E|------------------------------------------|
    B|------------------------------------------|
    G|------------------------------------------|
    D|------------------------------------------|
    A|---4---7---5---4---5---7-------5----------|
    E|---------------------------7-------7---7--|…
  • Piano thingy at the beginning:
    
    e]-----------------------------------------------------------------------]
    b]-----------------------------------------------------------------------]
    g]--9----------9-----------9------------9--------------------------------]
    d]----7-7-7-7-----6-6-6-6----7-7-7-7------6-6-6-6------------------------]
    a]-----------------------------------------------------------------------]
    E]-----------------------------------------------------------------------]
    
    Play…
  • Am E C D E
    Oh baby baby, how was I supposed to know, something wasn't right here,
    Am E C D E
    Oh baby baby, I shouldn't have let you go, and now your out of sight,
    
    
    (Bridge)
    
    
    Am E
    Show me how you want it to be,
    C D E
    Tell…
  • Verse:
    
    E|-2--0--2--0-----------0---------|
    B|---3--3--3--3---3---3---2---2-3-|
    G|------------------0-------2-----|
    D|-0--0--0--0---------------------|
    A|------------------------0---0---|
    E|----------------3---3-----------|
    
    Chorus:
    
    E|---------------------------------|
    B|-3---3---3---3-----2---2---2---2-|
    G|---0---0---0---0-----2---2---2---|
    D|---------------------------------|
    A|-------------------0---0---0---0-|
    E|-3---3---3---3-------------------|…
  • Intro/Verse:
    G:----------------------
    D:----------------------
    A:-3---3---3---3---0-2--
    E:---3---3---3---3------
    
    Ending:
    G:-----------------------------------
    D:-----------------------------------
    A:-3-3-3-3-3-3-3-3--5-5-5-5-5-5-5-5--
    E:-----------------------------------…
  • Whole Song:
    E|-------------------------------------------------------------|
    B|-------------------------------------------------------------|
    G|-------------------------------------------------------------|
    D|-------------------------------------------------------------|
    A|---------------4-4-4-4-4-4-4-4-6-6-6-6-6-6-6-----------------|
    E|-2-2-2-2-2-2-2-------------------------------7-7-7-7-7-7-7-7-|…
  • intro
    E ----------------------------------------------------------
    B ----------------------------------------------------------
    G ---7--757--757---757/12---7--757-757-7575757----- do this til verse
    D ---------------------------------------------------------
    A…
  • Intro
    E|----------------------------------------------------
    B|----------------------------------------------------
    G|-0-0-4-0-5-0-4-0---0-4-0---0-4-0----0-2-0-5-0-4/2-0-
    D|------------------2-------2--------0----------------
    A|----------------------------------------------------
    E|----------------------------------------------------
    
    E|----------------------------
    B|----------------------------
    G|--0-4-0---0-4-0-------------
    D|----------------------------
    A|-3-------5------------------
    E|----------------------------
    
    Verse…
  • ------------------------------------------------------------------------------
    ------------------------------------------------------------------------------
    ------------------------------------------------------------------------------
    -------------------------------------------------------------------x2---------
    -----5---3---2-------5---3---2-------5---3---2---3---2---3---2----------------
    -3-3---3---3---3-3-3---3---3---3-3-3---3---3---3---3---3---3---3--------------…
  • E---------------------------------------------------------|
    B---------------------------------------------------------|
    G---------------4444444444444---------------5555555555555-|
    D-5555555555555-4444444444444-2222222222222-5555555555555-|
    A-5555555555555-2222222222222-2222222222222-3333333333333-|
    E-3333333333333---------------0000000000000---------------|
    
    E---------------------------------------------------------|
    B---------------------------------------------------------|
    G---------------4444444444444---------------5555555555555-|
    D-5555555555555-4444444444444-2222222222222-5555555555555-|
    A-5555555555555-2222222222222-2222222222222-3333333333333-|
    E-3333333333333---------------0000000000000---------------|
    
    E---------------------------------------------------------|
    B---------------------------------------------------------|
    G---------------------------------------------------------|
    D---------------------------------------------------------|
    A---0-2-3-2-0---0-555555---0-2-3-2-0---0-555555-----------|
    E-3-----------3----------0-----------3--------------------|
    
    E---------------------------------------------------------|
    B---------------------------------------------------------|
    G---------------------------------------------------------|
    D---------------------------------------------------------|
    A---0-2-3-2-0---0-555555---0-2-3-2-0---0-555555-----------|
    E-3-----------3----------0-----------3--------------------|
    
    E---------------------------------------------------------|
    B---------------------------------------------------------|
    G---------------4444444444444---------------5-5-5-5-------|
    D-5555555555555-4444444444444-2222222222222-5-5-5-5-------|White…
  • Intro: *(lots of flanger and distortion with 50% reverb)*
    e|-------------------------------------------------------------------------|
    B|-------------------------------------------------------------------------|
    G|-------------------------------------------------------------------------|
    D|-11/14-14-14-14-11-11-9-9-9-11-11-7-7-7---(x3)---------------------------|
    A|-------------------------------------------------------------------------|
    E|-------------------------------------------------------------------------|
    ^^
    End…
  • Intro
    G/------------------------------------------------|
    D/------------------------------------------------|
    A/------------------------------------------------|
    E/-5-5-5-5--5-5-5-5--5-5--2-2-2-2--4-4-4-4--4-4---| x2
    
    Verse
    G/------------------------------------------------|
    D/------------------------------------------------|
    A/-4----------------------------------------------|
    E/---5-ring-5h7-2-2-2-2--4-4-4-4--4-4-------------|…
  • 1x let ring
    
    e---------
    b---------
    g---------
    d-7-------
    a-7-------
    e-5-------
    
    
                        1x  palm mutted
    
    e-------------------------------------------------
    b-------------------------------------------------
    g-------------------------------------------------
    d-5-5-5-5-5-5-5-5---------------------------------
    a-3-3-3-3-3-3-3-3-5-5-5-5-5-5-5-5-7-7-7-7-7-7-7-7-
    e-----------------3-3-3-3-3-3-3-3-5-5-5-5-5-5-5-5-
    
    e-----------------
    b-----------------
    g-----------------
    d-----------------
    a-9-9-9-9-9-9-9-9-
    e-7-7-7-7-7-7-7-7-…
  • play 8 times                    play twice
    E||--------------------|--------------------||-----------------|
    B||--------------------|--------------------||-----------------|
    G||*-------------------|-------------------*||*------6------7--|
    D||*-------------------|-------------------*||*--7---6---5--7--|
    A||--0-4--0--5----4----|-----4-------5--4---||---7---4---5--5--|
    E||--------------------|--3-------3---------||---5-------3-----|…
  • G
    There's an echo pulling out the meaning
    D
    Rescuing a nightmare from a dream
    Em
    The voices in my head are always screaming
    C
    That none of this means anything to me
    
    G
    And it's a long way back from seventeen
    D
    The…
  • INSIDE IN PARENTHESES I INCLUDED GUITAR 2
    
    -----------------------------------------------------------------
    -----------------------(0--4)------------------------------------
    ----------------5555---(5---)---4444------------2222(7---------4-)
    2222------------5555------------5555------------2222(-5--5--5----)
    2222------------3333------------2222------------0000-------------
    0000-------------------------------------------------------------
    
    ----------------------------------------------------------------------------
    -----(----------12)------(----------12)------(----------12)(8-8-8-8--8-8)---
    -----(12--12------)-5555-(12--12------)-4444-(12--12------)-2222----5555----
    2222-(--------12--)-5555-(--------12--)-5555-(--------12--)-2222----5555----
    2222----------------3333----------------2222----------------0000----3333----
    0000------------------------------------------------------------------------
    
    -----------------------------------------------------------------
    -----------------------------------------------------------------
    -----------------5555555555555555----------------22222222--------
    22222222222222222555555555555555555555555555555552222222255555555
    22222222222222222333333333333333355555555555555550000000055555555
    00000000000000000----------------3333333333333333--------33333333
    
    -----------------------------------------------------------------
    -----------------------------------------------------------------
    -----------------5555555555555555----------------2222222255555555
    22222222222222222555555555555555555555555555555552222222255555555
    22222222222222222333333333333333355555555555555550000000033333333
    00000000000000000----------------3333333333333333----------------
    
    It…
  • This is a little piece played in parts of the song with a second guitar.
    e|---------|
    b|---0-----|
    g|-----2---|
    d|-2-------|
    a|---------|
    e|---------|
    
    Intro - You can figure out the strumming pattern really easily
    E------------------------------------------------------
    b------------------------------------------------------
    g---------7----------REPEAT…
  • Intro
    
    
    e|-----------------------------------------------------------------|
    B|-----------------------------------------------------------------|
    G|-----------------------------------------------------------------|
    D|-7-7-7-7-7-7-7-6------------------7-7-7-7-7-7-7-6----------------|
    A|-----------------7-7-7-7-7-7-7-7------------------7--5--5-4-0-0--|
    E|-----------------------------------------------------------------|
    
    (x2)
    
    e|-------------------------------------------------------------------------|
    B|-------------------------------------------------------------------------|
    G|-------------------------------------------------------------------------|
    D|-6--6-7-7-6-7-9-9-7-7-6-7-9-9--11-12-11-11-9-7-6-7-6-7-6---7-6---7-6-----|
    A|---------------------------------------------------------7-----7-----7---|
    E|-------------------------------------------------------------------------|
    
    e|--------------------------------------|
    B|--------------------------------------|
    G|--------------------------------------|
    D|-7-7-6-----------------7--------------|
    A|-------7-5--5-4-5-4-0--7--(let…
  • Intro#1
    
    E---------- ----------- ----------- -----------|
    B---------- ----------- ----------- -----------|
    G---------- ----------- ----------- -----------|
    D----0-0-2- -----0-0-2- -----0-0-2- -----2-2-0-|
    A-3-3------ -----------…
  • Intro: C Am F G }x2
    
    Verse 1:
           C                       G
    I said settle down settle down everything is fine
    F                      G
    Take your eyes off the floor
             C                     G
    She said no…
  • Intro x2
           D5       A5       E5       G5
    e|--------------------------------------|
    B|--------------------------------------|
    G|--7-7-7-7-----------9-9-9-9-----------|
    D|--7-7-7-7--7-7-7-7--9-9-9-9--5-5-5-5--|
    A|--5-5-5-5--7-7-7-7--7-7-7-7--5-5-5-5--|
    E|-----------5-5-5-5-----------3-3-3-3--|
    
    Intro/Verse…
  • CHORD CHART:
            E       F#      B       G#      C#      A#      D#      Eii
    E|--------------------------------------------------------------------
    B|--------------------------------------------------------------------
    G|----------------------4---------------6---------------8-------9-----
    D|------2-------4-------4-------6-------6-------8-------8-------9-----
    A|------2-------4-------2-------6-------4-------8-------6-------7-----
    E|------0-------2---------------4---------------6---------------------
    
    ~…
  • Verse
    Chords (All through verse)
    -------------
    -------------
    ----9--6--9--
    -9--9--6--9--
    -9--7--4--7--
    -7-----------
    
    Verse
    Chords (End of verse)
    --------------------
    --------------------
    ----9--6--9--11-----
    -9--9--6--9--11--9--
    -9--7--4--7--9---9--
    -7---------------7--
    
    Chorus
    -----------------------------------------------
    -----------------------------------------------
    -----------------------------------------------…
  • Chords:
    
      F5  A5  B5  G5  E5  G#5 F#5
    |---------------------------|
    |---------------------------|
    |---------------------------|
    |-3---7---9---5---2---6---4-|
    |-3---7---9---5---2---6---4-|
    |-1---5---7---3---0---4---2-|
    
    
    Intro:
    |-----------------|-----------------|-----------------|-----------------|
    |-----------------|-----------------|-----------------|-----------------|
    |-----------------|-----------------|-----------------|-----------------|
    |---2-----1-----2-|-----2---4-------|---2-----1-----2-|-----2---2---1---|
    |-----------------|-------------2---|-----------------|-----------------|
    |-0-----0-----0---|---0-------------|-0-----0-----0---|---0-------------|
    
    
    Riff…
  • Intro
    e|------------------------------------------------------| 
    B|------------------------------------------------------| 
    G|------------------------------------------------------| 
    D|-----9-7-6--------6-7-9-7-6-----6--7-6-4--------------|
    A|---7-------7--7-7------------4-4-4-------4--9-7-9-9-7-|…
  • Verse 1:
    G
    Eyes are open, words are spoken
    D
    Here's to the sunrise
    Em
    Head is loaded, cards are folded
    C
    Under the moonlight
    
    Pre-Chorus:
    G                          D
    Can you remember, you remember the last time…
  • (intro/outro)
    
    |-------------------------------------------------  
    |-------------------------------------------------
    |-77777-------------------------------------------  
    |-77777--------------------77777------------------
    |-55555----5-4-0-5-4-0h2---77777-5-4-0-5-4-0h2----
    |--------------------------55555------------------
    
    |-----------------------------------
    |-----------------------------------
    |-----------------------------------
    |--9999--3333--5555-----------------
    |--9999--5555--5555--5-4-0-5-4-0h2--
    |--7777--5555--3333-----------------
    
    
    |----------------------------------------------------------------
    |----------------------------------------------------------------…
  • Intro
    E--------------
    B--------------
    G-----7--2--4--
    D--4--7--2--4--
    A--4--5--0--2--
    E--2-----------
    
    E--------------
    B--------------
    G-----7--2-----
    D--4--7--2-----
    A--4--5--0-----
    E--2-----------
    
    Verse(pm)
    E--------------
    B--------------
    G-----7--2--4--
    D--4--7--2--4--
    A--4--5--0--2--
    E--2-----------
    
    E-----------
    B-----------
    G-----7--2--
    D--4--7--2--
    A--4--5--0--
    E--2--------
    
    Chorus
    E-----------------------------
    B-----------------------------
    G--------------------------7--
    D--7--11--4--6--7----------7--
    A--7--11--4--6--7--(then)--5--
    E--5--9---2--4--5-------------
    
    Outro
    E-----------
    B-----------
    G--6--7-----
    D--x--7-----
    A--4--5-----
    E-----------
    
    E-----------
    B-----------
    G-----9--7--
    D--4--9--7--
    A--4--7--5--
    E--2--------
    
    End…
  • Intro
    
    E]---------------------55555555-----------------------------------|
    A]-44444444--55555555--77777777--77777777-------------------------|
    D]-66666666--77777777--77777777--99999999-------Play 2 times------|
    G]-66666666--77777777------------99999999-------------------------|
    B]----------------------------------------------------------------|
    E]----------------------------------------------------------------|
    
    Verse…
  • Intro
    E|-----------------------------------------------------------|
    B|-----------------------------------------------------------|
    G|-----------------------------------------------------------|
    D|----5------3-2---------------------------------------------|
    A|--3----3-5-------------------------------------------------|
    E|-----------------------------------------------------------|
    
    Verse
    E|-----------------------------------------------------------|
    B|-----------------------------------------------------------|
    G|--5555555555555555------------------------55555555---------|
    D|--5555555555555555-5-33333333-7777-3333-5-55555555---------|
    A|--3333333333333333-5-33333333-7777-3333-5-33333333---------|
    E|-------------------3-11111111-5555-1111-3------------------|
    
    Pre…
  • Intro (Bass)
    G|-------------------------------------------------------|
    D|---------0-0-0-0---------------------------------------|
    A|-0-0-2-2-----------------------------------------------|
    E|-------------------------------------------------------|
    
    Riff
    e|-------------------------------------------------------|
    B|-------------------------------------------------------|
    G|---9-----9p6-----7-----7-----7-7-----------------------|
    D|-7---7-7-----7-7---7-7---7-7---------------------------|
    A|-------------------------------------------------------|
    E|-------------------------------------------------------|
    
    Verse
    e|-------------------------------------------------------|
    B|-------------------------------------------------------|
    G|---9---7---9-7-----------------------------------------|
    D|-7-9-7-7-7-9-7-7---------------------------------------|
    A|-7-7-7-5-7-7-5-7---------------------------------------|
    E|-5---5---5-----5---------------------------------------|
    
    Chorus
    e|-------------------------------------------------------|
    B|-------------------------------------------------------|
    G|-9-7-----9-7-----9-6-7---------------------------------|
    D|-9-7-7---9-7-7---9-6-7---------------------------------|
    A|-7-5-7---7-5-7---7-4-5---------------------------------|
    E|-----5-------5-----------------------------------------|
    
    Interlude
    e|-------------------------------------------------------|
    B|-------------------------------------------------------|
    G|-----6-------7-------9-------7-------------------------|
    D|---6---6---7---7---9---9---7---7-----------------------|
    A|-4-------5-------7-------5-----------------------------|
    E|-------------------------------------------------------|…
  • Verse:
    G
    Sometimes I wonder where our lives Go
    D
    They question who we used to be
    Em
    Sometimes I feel like i'm the oxygen between
    C
    The cigarette and gasoline
    
    Chorus:
    G
    I can't sleep cause what if I dream
    D
    Of…
  • INTRO (F#5):
    G|---------------------|
    D|-4---4---4---4--2----|
    A|---4---4---4---------|
    E|---------------------|
    
    VERSE:
          F# > B# > F# > C# > F# >B# > F# > G#m > C# > F#
    
    CHORUS:
          F# > D#m > B >
    
          C# > D >…
  • A#5/Bb5 C5      F5      A#5
    |---------------------------------|
    |---------------------------------|
    |-3-3-----5-5-------------3-3-----|
    |-3-3-----5-5-----3-3-----3-3-----|
    |-1-1-----3-3-----3-3-----1-1-----|
    |-----------------1-1-------------|…
  • VERSE
    e|--------------------------------------------------------------|
    B|--------------------------------------------------------------|
    G|--------------------------------------------------------------|
    D|-----------------7777-55555555-----------------7777-5555------|
    A|-9p5-9p5-9p5-9p5-7777-55555555-9p5-9p5-9p5-9p5-7777-5555-7777-|
    E|-----------------5555-33333333-----------------5555-3333-7777-|
    
    	PRE-CHORUS
    e|--------------------------|
    B|--------------------------|
    G|-77-----------77----------|
    D|-77-55-777777-77-55555555-|
    A|-55-55-777777-55-55555555-|
    E|----33-555555----33333553-|
    
    	CHORUS
    e|-----------------------------------------------------|
    B|-----------------------------------------------------|
    G|------7777----------------7777-------------------(7)-|…
  • Intro 
    (Harmonics)
    
    e|------|
    b|------|
    g|------|
    d|------|
    a|--7---|
    E|------|
    
    e|-------------------------------------------|
    b|-------------------------------------------|
    g|-------------------------------------------|
    d|---7-6-----7-6---------7-6-----7-6---------|
    a|-7-------7-----7-9---7-------7-----7-9--7--|
    E|-------------------------------------------|
    
    
    Verse
    
    e|-------------------------------------------|
    b|-------------------------------------------|
    g|-------------------------------------------|
    d|-44444444444--5555555555-------------------|
    a|-22222222222--4444444444--777777777777-----|
    E|--------------------------555555555555-----|
    One…
  • Intro
    ----------------------------------------------
    ----------------------------------------------
    ----------------------------------------------
    ----------8-s9--999-s10-s11--6666s7--777------
    -7--777---6-s7--777-s8--s9---4444s5--555-6s7--
    -5--555----------------------------------4s5--
    
    ---------------------------------------------
    ---------------------------------------------
    ---------------------------------------------
    ---------8-s9--999-s10-s11-111111--7777777---
    ---777---6-s7--777-s8--s9---9-9-9--5555555---
    ---555---------------------------------------
    
    ska…
  • e---------------------------------------------------------------------------------------------------|
    b---------------------------------------------------------------------------------------------------|
    g---------------------------------------9-9-9-9-----------------------------------------------------|
    d------4-4-4-4-4-4---7-7-7-7-8-8-8------9-9-9-9-----------------------------------------------------|
    a------4-4-4-4-4-4---7-7-7-7-8-8-8------7-7-7-7----2-let…
  • |--------------------------------------------------------
    |--------------------------------------------------------
    |--------------------------------------------------------
    |--------4-----4-0-----0-----0----------4-----4-0-----0--
    |------5-----5-------7-----7-----7----5-----5-------7----
    |----5-----5-------5-----5-----5----5-----5-------5------
    
    |--------------------------------------------------------
    |--------------------------------------------------------
    |--------------------------------------------------------
    |-----0----------4-----4-0----0-----0-----------0-----0--
    |---7-----7----5-----5------7-----7-----7-----9-----9----
    |-5-----5----5-----5------5-----5-----5-----7-----7------
    
    |--------------------------------------------------------
    |--------------------------------------------------------
    |--------------------------------------------------------
    |-----0-----------0-----0-----------0-----0--------------
    |---9-----9-----5-----5-----5-----9-----9-----9----------
    |-7-----7-----3-----3-----3-----7-----7-----7------------…
  • Riff 1 (Intro & Verse)
    G:---------------------------------------
    D:---------------------------------------
    A:-55555555------------------------------
    E:----------33333333-55555555-33333333---
    
     Riff 2 (Chorus)
    G:----------------------
    D:----------------------
    A:-55555555-------------
    E:----------3333-5555---…
  • Solo Part 1   (Play 2x)
    e|----------------10-------------------------------
    B|-10----10-12-----------------------------9-------
    G|--------------------------9-----9-11-------------
    D|-------------------12----------------------11----
    A|-------------------------------------------------
    E|-------------------------------------------------
    
    e|----------------10-------12----10-----9----------
    B|-10----10-12-------------------------------12----
    G|-------------------------------------------------
    D|-------------------12----------------------------
    A|-------------------------------------------------
    E|-------------------------------------------------
    
    Solo…
  • repeat 4x's
    
    E-----------------------------
    B-----------------------------
    G--------------66-------------
    D-----7976--0-----------------
    E--0-------7-7----------------
    A-----------------------------
  • intro
    e------------------------------------------------
    B------------------------------------------------
    G-6---6-7-6--------------------------------------
    D---7-------7---7--------------------------------
    A-------------0----------------------------------
    E------------------------------------------------x2
    
    e--------…
  • Intro
    E------------------------------|
    B------------------------------|
    G------------------------------|
    D------------------------------|
    A------------------------------|
    E-0-1-3-0---0-1-3-0---0-1-3-2--|
    
    strophe 1st part
    E-----------------|
    B-----------------|
    G-----------------|
    D-----------------|
    A-4-4-4?-6-6-6----|…
  • Intro (DEJARLO SONANDO)
    G|-6------------------------------------------------------------------|
    D|-7------------------------------------------------------------------|
    A|-5------------------------------------------------------------------|
    E|--------------------------------------------------------------------|
    
    REQUINTO…
  • Heres the correct solo (I hope)
    |e|-------------------------------------------|
    |B|-------------------------------------------|
    |G|-7-9-7-11-9-7-9-7-9-12-11-9-7--7-9-7-11-9-7|
    |D|-------------------------------------------|
    |A|-------------------------------------------|
    |E|-------------------------------------------|
    
    
    
    |e|---------------------------|
    |B|---------------------------|
    |G|7h9pht11p7h9p7h11p7-12-11-9|
    |D|---------------------------|
    |A|---------------------------|
    |E|---------------------------|
    
    
    |e|----10----10-12-12-10-10-9-9-10-10|
    |B|-10----10-------------------------|
    |G|----------------------------------|
    |D|----------------------------------|
    |A|----------------------------------|
    |E|----------------------------------|
    
    
    |e|----12----12-14-14-12-12-10-10-9-9|
    |B|-10----10-------------------------|
    |G|----------------------------------|
    |D|----------------------------------|
    |A|----------------------------------|
    |E|----------------------------------|
    
    
    |e|-10-12-10-14-10-(X4)--12-14-12-15-12-(X4)|
    |B|-----------------------------------------|
    |G|-----------------------------------------|
    |D|-----------------------------------------|
    |A|-----------------------------------------|
    |E|-----------------------------------------|
    
    These…
  • E-----------------------------------------------------------
    B-12^slightly-bend/0----------------------------------------
    G-----------------------------------------------------------
    D-2-2-4--5^-5-4--2-2-4--5^--5-4-2-2-4-----5-4---------------
    A-2-2-4--3^-3-2--2-2-4------3-2-2-2-4--3^-3-2---------------
    E-0-0-2----------0-0-2----------0-0-2-----------------------
    
    the…
  • Intro:
    e|-17~-15/19~-----------------|
    B|-----------------------17/5-|
    G|-------------11h12p11-------|
    D|----------------------------|
    A|----------------------------|
    E|----------------------------|
    
    Main Riff:
    e|---------------------|
    B|-12-10-7h8----7h8----|
    G|-12-11-7h9----7h9----|
    D|---------------------|
    A|---------------------|
    E|---------------------|…
  • intro
    e|--------------------------------------------------------|
    B|--------------------------------------------------------|
    G|--------------------------------------------------------|
    D|----------111111111111111111----------99999999----------|
    A|-99999999--9-9-9-9-9-9-9-9-9-99999999-77777777-99999999-|
    E|-77777777--------------------77777777----------77777777-|
    
    e|--------------------------------------------------------|
    B|--------------------------------------------------------|
    G|--------------------------------------------------------|
    D|-66666666-99999999-9-8-6--------------------------------|
    A|-44444444-77777777-7-6-4--------------------------------|
    E|--------------------------------------------------------|
    
    			Chorus…
  • |--------------------------------------------------------|
    |--------------------------------------------------------|
    |---9---------8--------4--------2--------1---------------|
    |---9-x’s-7---8x’s-3---4x's-5---2—x’s-3--1-x's-3--2------|
    |---7---------6--------2--------0--------0--------2-x's-5|
    |-------------------------------------------------0------|
    
    |--------------------------------------------------------|
    |--------------------------------------------------------|
    |---9---------8--------4--------2--------1---------------|
    |---9-x’s-3---8x’s-3---4x's-5---2—x’s-3--1-x's-3--2------|
    |---7---------6--------2--------0--------0--------2-x's-5|
    |-------------------------------------------------0------|…
  • Standard tuning (EADGBe)
    
    Intro
    ------------------------------------------------------------
    ------------------------------------------------------------
    ------------------------------------------------------------
    -10-x-x-x-x-x-x-x-x-x-x-x-x-x-x-7-x-x-x-x-x-x-3-x-x-x-x-x-x-
    -10-x-x-x-x-x-x-x-x-x-x-x-x-x-x-7-x-x-x-x-x-x-3-x-x-x-x-x-x-
    -8--x-x-x-x-x-x-x-x-x-x-x-x-x-x-5-x-x-x-x-x-x-1-x-x-x-x-x-x-
    Play…
  • Intro Thingie
    0:0-0:14
    e--------|--------|--------|
    B--------|--------|--------|
    G-4--4-4-|-4--4-4-|-4--44--|
    D-x--x-x-|-x--x-x-|-x--xx--|
    A-2--2-2-|-2--2-2-|-2--22--|
    E--------|--------|--------|
    
    
    Chord After That
    
    Young…
  • Intro & Verse
    G:----------------------------------------------------------------------- 
    D:-----------------------------------------------------------------------
    A:-3333333333333333------------------------------------------------------
    E:------------------1111111111111111-3333333333333333-1111111111111111---…
  • Silly INTRO-slightly muted:Who makes up all those rules...
    e|--------------|
    B|--------------|
    G|--5---------4-|
    D|--5--5--7--4--|
    A|--3--5--7--2--|
    E|------3--5----|
    
    Fast INTRO:
    e|------------------------------------------------------|
    B|------5-6-5------5-6-5-------5-6-5--------5-6-5-------|
    G|--5---------5------------5--5---------5-------------5-|
    D|--5-------------3------------5-------------5----------|
    A|--3-------------3------------3-------------5----------|
    E|----------------1--------------------------3----------|
    
    VERSES:What…
  • Intro 8x
    E|------------|
    B|------------|
    G|------------|
    D|-----5---5--|
    A|-3-3---3----|
    E|------------|
    
    Chords 4x
    E|--------------------|
    B|--------------------|
    G|-----------3----4---|
    D|-4----6----3----4---|
    A|-4----6----1----2---|
    E|-2----4-------------|
    
    Intro…
  • intro (theres some muting that you can figure out)
    e---------------------------------------------|
    b---------------------------------------------|
    g----------------------------6/7-7777---------|
    d-77777777-22222222-44444444-6/7-7777---------|
    a-77777777-22222222-44444444-4/5-5555-5-4-2-0-|
    e-55555555-00000000-22222222------------------|
    
    pre-verse…
  • Intro (palm mute these chords)
    
    E----------------------------------------------------------
    B----------------------------------------------------------
    G-------------------------0-----0-----0-----0--------------
    D-77-777-77-777-77-777-7---4-0---4-0---4-0---4-0-----------
    A-55-555-55-555-55-555-5-----------------------------------
    E----------------------------------------------------------
    
    Intro…
  • Intro/chorus
    ---------------------------------
    ---------------------------------
    ---------------------------------
    -4444444477772222----------------
    -4444444477772222----------------
    -2222222255550000----------------
    
    Verse
    ---------------------------------
    ---------------------------------
    -6666666666666666-444-66---------
    -XXXXXXXXXXXXXXXX-XXX-XX-7-------
    -4444444444444444-222-44-X-------
    -------------------------5-------
    
    Bridge…
  • Q=100
     4/4
      Gtr I
    |-------5~-----------0~--2----------------------------------------|
    |-----7---7--------3---3---3--7-7-5-5-5-5-3hold--2-3-7-3-2-3-3----|
    |---7-------7----0------------7-7-6-6-5-5-2hold--2-3-7-3-2-2-2----|
    |-0------------0--------------------------------------------------|
    |-----------------------------------------------------------------|
    |-----------------------------------------------------------------|
    
    
    |-------5-------7-7--5----|-------0----2----3-3--2----|--------------|--------|
    |-----7----7----7-7--5----|-----3----3---3--3-3--3----|-2-3--7--3-2--|-3-3----|
    |---7--------7------------|---0-----------------------|-2-3--7--3-2--|-2-2----|
    |-0-----------------------|-0-------------------------|--------------|--------|
    |-------------------------|---------------------------|--------------|--------|
    |-------------------------|---------------------------|--------------|--------|…
  • ---------||-2-----0-----2-----0------------------------------|---------------- 
    ---------||---3-----3-----3-----3----3-----3/5---2-----2-3---|---------------- 
    ---------||-2-----2-----2-----2--------0-----------2---------|-x4-------------…
  • Fig. 1  (this the little intro)
    e|----------------------|----------------------|----------------------|
    B|----------------------|----------------------|----------------------|
    G|----------------------|----------------------|----------------------|
    D|----7-7--7--7--7-7----|----7-7--7--7--7-7----|-12-12--12--12--12-12-|
    A|----5-5--5--5--5-5----|----5-5--5--5--5-5----|-10-10--10--10--10-10-|
    E|----------------------|----------------------|----------------------|
    
    e|----------------------|----------------------|----------------------|
    B|----------------------|----------------------|----------------------|
    G|----------------------|----------------------|----------------------|
    D|----7-7--7--7--7-7----|-14-14--14--14--14-14-|----7-7--7--7--7-7----|
    A|----5-5--5--5--5-5----|-12-12--12--12--12-12-|----5-5--5--5--5-5----|
    E|----------------------|----------------------|----------------------|
    
    Fig.…
  • Intro
    e|------------------------|
    B|------------------------|
    G|-5--5--5-4--------------|
    D|-5--5--5-4--7--7--7-5---|
    A|-3--3--3-2--7--7--7-5---|
    E|------------5--5--5-3---|
    
    Verse
    e|------------------------|
    B|------------------------|
    G|-5--5--5-4--------------|
    D|-5--5--5-4--7--7--7-5---|
    A|-3--3--3-2--7--7--7-5---|
    E|------------5--5--5-3---|
    
    Pre…
  • E----------------------------------------------------------------|
    b-------------------------------------6-55------7-9-7-5565-5-----|
    g--------------------------------5566------66-9-----------6------|
    d----------------------------------------------------------------|
    a--7-5-4-00----0--22332-00----0----------------------------------|
    e-----------33-------------33------------------------------------|…
  • Chords used:
    E-----------------------
    B-----------------------
    G--3---10---8---5-------
    D--3---10---8---5---3---
    A--1----8---6---3---3---
    E-------------------1---
       Bb  Fii  Eb  C   F
    
    [Verse:]
    Bb Fii Eb C (4x)
    
    Then play…
  • -----------------------------------------------------------------
    -----------------------------------------------------------------
    -----------------------------------------------------------------
    -----------------------------------------------------------------
    ------------22222222-44444444-66666666-77777777------------------
    
    end…
  • Solo 1
    e|----------------------------------------------------------------------
    B|----------------------------------------------------------------------
    G|----------------9-8-9/11~--12-12-12--11-11--9--8-8-6-6-7-7-8----9-9-9-
    D|---12--12-12-12-------------------------------------------------------
    A|----------------------------------------------------------------------
    E|----------------------------------------------------------------------
    
    e|----------------------------------------------------------------------
    B|----------------------------------------------------------------------
    G|---11--10--9--9-9-9-7--5---4h5-6-4h5-6-4h5-6--4-4-5-5p6-4-------------
    D|----------------------------------------------------------------------
    A|----------------------------------------------------------------------
    E|----------------------------------------------------------------------
    
    e|----------------------------------------------------------------------
    B|----------------------------------------------------------------------
    G|------------------------9-9--10-10-9-8--7--8-7-5--4-4-5--5--7---------
    D|---12--12-10-8--10--12------------------------------------------------
    A|----------------------------------------------------------------------
    E|----------------------------------------------------------------------
    
    e|----------------------------------------------------------------------
    B|----------------------------------------------------------------------
    G|---4-4-5--5/6-9--13-13-11-10--11-13--11-10---------------------------
    D|----------------------------------------------------------------------
    A|----------------------------------------------------------------------
    E|----------------------------------------------------------------------
    
    Solo…
  • G|----------------------------|
    D|----------------------------|
    A|----------------------------|        
    E|-0-0-0-0-0-4-0-0-0-0-0-1----|          
    
    G|----------------------------|
    D|----------------------------|
    A|----------------------------|
    E|-0-0-0-0-0-4-0-0-0-0-0-1----|
    
    G|----------------------------|
    D|----------------------------|
    A|----------------------------|
    E|-0-0-0-0-0-4-0-0-0-0-0-1----|…
  • E|-------------------|
    B|-------------------|
    G|-------------------|
    D|----4--1-----2--1--|
    A|-2--------2--------|
    E|-------------------|
    
    Intro 2x
    E|--------------------------------------|
    B|--------------------------------------|
    G|-444------444-------------------------|
    D|-444-2222-444-6666-444-6666-22222222--|
    A|-222-2222-222-6666-444-6666-22222222--|
    E|-----0000-----4444-222-4444-00000000--|
    
    Verse…
  • E:--------------------------------------------------|
    A:--------------------------------------------------|
    D:---------------------------0-----0------0----0----|
    G:----7--9--7---7--9--7-----7-----9-----6-----6-----|
    B:--7----------7------------------------------------|
    E:--------------------------------------------------|
    
    E:--------------------------------------------------|
    A:--------------------------------------------------|
    D:---------------------------0-----0------0----0----|
    G:----7--9--7---7--9--7-----7-----9-----6-----6-----|
    B:--7----------7------------------------------------|
    E:--------------------------------------------------|…
  • e|----------------------------------|x2 little gain
    b|----------------------------------|think{from the wallsof
    g|-5-5-5-5-4-5-7-5-9----------------|tokeyo-o till londens
    d|----------------------------------|time to go go…
Наверх