Аккорды Blink 182 - Aliens Exist

Добавлено: @romashka
Дата добавления: 16 Марта 2013г.
Рейтинг:
0.0
Просмотров: 452
Транспонировать - +
Riff A
intro
g|-444444444444--4-|
d|-444444444444--x-|
a|-222222222222--2-|
e|-----------------|

Riff B
Verse (2x)
g|-44444444----------------------------|
d|-44444444-44444444-66666666-22222222-|
a|-22222222-44444444-66666666-22222222-|
e|----------22222222-44444444-00000000-|

     (2x)
g|-44444444-66666666-------------------|
d|-44444444-66666666-66666666-22222222-|
a|-22222222-44444444-66666666-22222222-|
e|-------------------44444444-00000000-|

Riff C
     (2x)
g|-44444444----------------------------|
d|-44444444-22222222-66666666-22222222-|
a|-22222222-22222222-66666666-22222222-|
e|----------00000000-44444444-00000000-|

Riff D
Chorus
g|-4---4-4-4-4-------------4---4-4-4-4-------------|
d|-4---4-4-4-4-4---4-4-4-4-4---4-4-4-4-4---4-4-4-4-|
a|-2---2-2-2-2-4---4-4-4-4-2---2-2-2-2-4---4-4-4-4-|
e|-------------2---2-2-2-2-------------2---2-2-2-2-|

g|----------------------9----9----9----9---|
d|--6----6----6----6----9----9----9----9---|
a|--6----6----6----6---7-7--7-7--7-7--7-7--|
e|-4-4--4-4--4-4--4-4----------------------|

   I?m not like you guys...
g|-----------4--------------4-|
d|-4-4---2-2-4----4-4---2-2-4-|
a|-4-4---2-2-2----4-4---2-2-2-|
e|-2-2---0-0------2-2---0-0---|

Riff E
Bridge (gtr 1)
g|-4-4-4-4-4-4-4-4-4-4-4-4-4-4-4-4-4-4-4-4-4-4-4-4-4-4-|
d|-x-x-x-x-x-x-x-x-x-x-x-x-x-x-x-x-x-x-x-x-x-x-x-x-x-x-|
a|-2-2-2-2-2-2-2-2-2-2-2-2-2-2-2-2-2-2-2-2-2-2-2-2-2-2-|
e|-----------------------------------------------------|
(gtr 2)
g|-88888888-866666666/99999999-988888888--|
d|-xxxxxxxx----xxxxxx---xxxxxx-----xxxxxx-|
a|-66666666-644444444/77777777-766666666--|
e|----------------------------------------|

Riff F
     Dark and scary, ordinary
g|----------------------------44444444-|
d|-66666666-44444444-22222222-44444444-|
a|-66666666-44444444-22222222-22222222-|
e|-44444444-22222222-00000000----------|

   I?m not like you guys...
g|-----------4--------------4-|
d|-4-4---2-2-4----4-4---2-2-4-|
a|-4-4---2-2-2----4-4---2-2-2-|
e|-2-2---0-0------2-2---0-0---|
Наверх