Аккорды Bon Iver - Towers

Добавлено: @romashka
Дата добавления: 18 Мая 2018г.
Рейтинг:
0.0
Просмотров: 231
Транспонировать - +
 C#m        E     E/G#   A5maj9
   v  V  ^ v ^ v v ^ v v ^ v v   ^v ^ v   ^ v ^
e|--0---0---0-0-0-----0-0-----0-0----0-------4--4----4-4-4-----|
B|--5---5---5-5-5-----5-5-----5-5----5----5-----5----5-5-5-----| ^ = Upstroke
G|--4h6-6---6-6-6--4--4-4-----4-4----4-----4----4----4-4-4-----|
D|-------------------------6-------7------------7----7-7-7-----| v = Downstroke
A|-------------------------------------------------------------|
E|-------------------------------------------------------------|
 
     C#m   E E/G# Aadd9
For the love, I'd  fallen on
     C#m   E E/G# Aadd9
in the swampy August   dawn
     C#m   E E/G# Aadd9              B (Badd13)
what a mischief you  would bring young darling!
     C#m       A    B
when the onus is not all your own
       C#m      A        B
when you're up for it before you've grown
      C#m       A         E
Wo-oo-ah oh ah oh ah oh

from the faun forever gone
in the towers of your honeycomb
I'd a tore your hair out just to climb back darling
when you're filling out your only form
can you tell that it's just ceremon'
now you've added up to what you're from

Wo-oo-ah oh ah oh ah oh

BRIDGE:
G                        Bm    A  G
build your tether rain-out from your fragments
G                      Bm    A  G
break the sailor's table on your sacrum
G                       Bbdim     D
fuck the fiercest fables, I'm with Hagen

Last verse - KEY CHANGE!

   Bm         D     D/F#   G5maj9
   v  V  ^ v ^ v v ^ v v ^ v v   ^v ^ v   ^ v ^
e|-------------------------------------------2--2--------------|
B|--3---3---3-3-3-----3-3-----3-3----3----3-----3----3-3-3-----| ^ = Upstroke
G|--2h4-4---4-4-4--2--2-2-----2-2----2-----2----2----2-2-2-----|
D|-------------------------4-------5------------5----5-5-5-----| v = Downstroke
A|-------------------------------------------------------------|
E|-------------------------------------------------------------|

     Bm        D D/F# Gadd9
for the love, comes the burning   young
     Bm        D D/F# Gadd9
from the liver, sweating through your tongue
     Bm        D D/F# Gadd9           
      A(add13)
well, you're standing on my sternum don't 
you climb down darling
     Bm          G     A
oh the sermons are the first to rest
      Bm            G       A
smoke on Sundays when you're drunk and dressed
     Bm           G     A
out the hollows where the swallow nests
      Bm       G
Wo-oo-ah oh ah oh ah oh
Наверх