Аккорды Boston - More Than A Feeling

Добавлено: @romashka
Дата добавления: 14 Апреля 2022г.
Рейтинг:
0.0
Просмотров: 19
Транспонировать - +
G     C     Em     D    D/F#  Bm/A
e||--3-----8-----7------5-----2-----2-----------||
B||--3-----8-----8------7-----3-----3-----------||
G||--4-----9-----9------7-----2-----4-----------||
D||--5----10-----9------7-----0-----4-----------||
A||--5----10-----7------5-----0-----0-----------||
E||--3-----8-----7------x-----2-----0-----------||

   Dsus4        Eb    Em7     Bm/A   G/F#   Am/G   Cadd9   A7sus4    Asus4
e||--3----------3-----0-------2-----2-------0-------3--------3--------0----||
B||--3----------4-----1-------0-----0-------1-------3--------3--------3----||
G||--1----------3-----0-------2-----0-------0-------0--------0--------2----||
D||--0----------1-----0-------0-----0-------2-------3--------0--------2----||
A||--x----------x-----1-------0-----2-------0-------2--------0--------x----||
E||--x----------x-----0-------x-----2-------3-------0--------0--------x----||

[INTRO]
D  Dsus4   D   C   G  [4x]


[VERSE1]
D               Dsus4           C       G
I looked out this morning and the sun was gone
D              Dsus4    C        G
Turned on some music to start my day
D      Dsus4     C        G
I lost myself in a familiar song
D         Dsus4      Am       Dsus4 D
I closed my eyes and I slipped away


[BRDIGE]
D Dsus4 D   C (strum) C (picked top strings)  G (picked top strings)

C  Em  D  (picked)

G  C   Em  D  [2x]

[CHORUS1]
  G           C        Em          D
It's more than a feeling, more than a feeling
    G             C     Em           D
when I hear that old song, they used to play (more than a feeling)
G       C         Em          D
I begin dreaming (more than a feeling)
    G       C          Eb
till I see Marianne walk away
^ Em7     A        Asus4   A
I see my Marianne walking away


G  G  D/F#  Em7   D


[VERSE2]
D       Dsus4       C        G
So many people have come and gone
   D     Dsus4       C        G
Their faces fade as the years go by
D     Dsus4           C        G
Yet I still recall as I wander on
D            Dsus4      Am     Dsus4 D
As clear as the sun in the summer sky

[BRDIGE]
C  Em  D
G  C   Em  D  [2x]

[CHORUS]
  G           C        Em          D
It's more than a feeling, more than a feeling
    G             C     Em           D
when I hear that old song, they used to play (more than a feeling)
G       C         Em          D
I begin dreaming (more than a feeling)
    G       C          Eb
till I see Marianne walk away
Em7       A        Asus4   A
I see my Marianne walking away


Bm  Bm/A   G  D/F#  Asus A


[INSTRUMENTAL]
D    G     A     G
D    G     D     A

D    G     Bm    A
D    Bm    Em    A


(exit)
G  G  D/F#  Em7   D

[VERSE]-
D        Dsus4     C        G
When I?m tired and thinking cold
D          Dsus4     C       G
I hide in my music, forget the day
 D          Dsus4   C       G
And dream of a girl, I used to know
D         Dsus4        Am       D
I closed my eyes and she slipped away
 Am       Dsus4 D
she slipped away.


[BRDIGE]
C  Em  D
G  C   Em  D  [2x]

[CHORUS]
  G           C        Em          D
It's more than a feeling, more than a feeling
    G             C    Em           D
when I hear that old song they used to play (more than a feeling)
G       C         Em          D
I begin dreaming (more than a feeling)
    G       C          G
till I see Marianne walk away


[ENDING]
G  C   Em  D  [5x] 
Наверх