Аккорды Car Seat Headrest - Cosmic Hero

Добавлено: @romashka
Дата добавления: 17 Февраля 2024г.
Рейтинг:
0.0
Просмотров: 77
[Verse 1]

G |----------------------------------------------------------------|
D |----------------0-0-0-0-0-0-0-0-0-0-0---0-0---0-----------------|
A |------------0-2-----------------------2-----2---3-3-3-3-3-3-2---|
E |--3-3-3-3-3---------------------------------------------------3-|


G |-------------------------------------------------------------0------|
D |----------------0-0-0-0-0-0-0-0-0-0-0-0-0-0---0-----------0h2--2-0--|
A |------------0-2-----------------------------2---3-3-3-3-3-----------|
E |--3-3-3-3-3---------------------------------------------------------|


G |-------------------------------------------------------------------|
D |----------------0-0-0-0-0-0-0-0-0-0-0-0-0-0---0---------------5----|
A |------------0-2-----------------------------2---3-3-3-3-3-3-3------|
E |--3-3-3-3-3-----------------------------------------------------3--|


G |-------------------------------------------------------------------|
D |----------------0-0-0-0-0-0-0-0-0-0-0-0-0-0------------------------|
A |------------0-2-----------------------------0-2-3-3-3-3-3-2-2-0----|
E |--3-3-3-3-3-----------------------------------------------------3--|


G |----------------------------------------------------------------------------0-----|
D |----------------0-0-0-0-0-0-0-0-0-0-0-0-0-0-----2-2-2-2-2-2-2-2-2---2-2-0h2---2-0-|
A |------------0-2-----------------------------0-2-3-3-3-3-3-2-2-0-------------------|
E |--3-3-3-3-3-------------------------------------------------------0---------------|


G |----------------------------------------------------------------------------0-----|
D |----------------0-0-0-0-0-0-0-0-0-0-0-0-0-0-----------------2-2-2---2-2-0h2---2-0-|
A |------------0-2-----------------------------0-2-3-3-3-3-3-2-2-0-------------------|
E |--3-3-3-3-3-------------------------------------------------------0---------------|


G |-------------------------------------------------------------0------|
D |----------------0-0-0-0-0-0-0-0---0-0-0-0-0---0-----------0h2--2-0--|
A |------------0-2-----------------2-----------2---3-3-3-3-3-----------|
E |--3-3-3-3-3---------------------------------------------------------|


G |-------------------------------------------------------------0------|
D |----------------0-0-0-0-0-0-0-0-0-0-0-0-0-0---0-----------0h2--2-0--|
A |------------0-2-----------------------------2---3-3-3-3-3-----------|
E |--3-3-3-3-3---------------------------------------------------------|



[Pre-Refrain]

G |------------------------------------------------------------------------------------------|
D |------------------------------------------------------------------------------------------|
A |---------------------------------------------------------------------------------10-------|
E |--3-3-3-3-3-3-3-3/10-10-10-10-10-10-10-10-10-10-10-10-10-10-10-10-12-12-0--12-12----12-10\|


G |------------------------------------------------------------------------------------------|
D |------------------------------------------------------------------------------------------|
A |---------------------------------------------------------------------------------10-------|
E |--3-3-3-3-3-3-3-3/10-10-10-10-10-10-10-10-10-10-10-10-10-10-10-10-12-12-0--12-12----12-10\|


G |-----------------------------------------------------------------------------------------|
D |-----------------------------------------------------------------------------------------|
A |---------------------------------0-----0-----------------------0--------------7----------|
E |--3-3-3-3-3-3-3-3/10-10-10-10-10----10----10-10-10-10-10-10-10----0--0--0--0-----7--5--7-|


G |-----------------------------------------------------------------------------------------|
D |-----------------------------------------------------------------------------------------|
A |---------------------------------0-----0-----------------------0--------------7----------|
E |--3-3-3-3-3-3-3-3/10-10-10-10-10----10----10-10-10-10-10-10-10----0--0--0--0-----7--5--7-|


[Refrain]

rhythm here mirrors the vocal rhythm, except for    |this  part! |
G |--------------------------------------------------------------------|
D |---------0----------------------------------------------------------|
A |-----0-2--------2--/5-5-5-7-0----1--/5-5-5-7-0----1/3--3-3-2-2-0-0--|
E |-3-3-------3--------------------------------------------------------|


G |--------------------------------------------------------------------|
D |--------------------------------------------------------------------|
A |-----0-2-0------2--/5-5-5-7-0----1--/5-5-5-7-0----1/3--3-3-2-2-0-0--|
E |-3-3----------------------------------------------------------------|


G |--------------------------------------------------------------------|
D |--------------------------------------------------------------------| 
A |-----0-2-0------2--/5-5-5-7-0----1--/5-5-5-7-0----1/3--3-3-2-2-0-0--|
E |-3-3----------------------------------------------------------------|


G |--------------------------------------------------------------------|
D |--------------------------------------------------------------------| 
A |-----0-2-0------2--/5-5-5-7-0----1--/5-5-5-7-0----1/3--3-3-2-2-0-0--|
E |-3-3----------------------------------------------------------------|


G |--------------------------------------------------------------------|
D |--------------------------------------------------------------------| 
A |-----0-2-0------2--/5-5-5-7-0----1--/5-5-5-7-0----1/3--3-3-2-2-0-0--|
E |-3-3----------------------------------------------------------------|


[Verse 2]

G |-------------------------------------------------------------------|
D |----------------0-0-0-0-0-0-0-0-0-0-0-0-0-0---0---------------5----|
A |------------0-2-----------------------------2---3-3-3-3-3-3-3------|
E |--3-3-3-3-3-----------------------------------------------------3--|


G |-------------------------------------------------------------0------|
D |----------------0-0-0-0-0-0-0-0-0-0-0-0-0-0---0-----------0h2--2-0--|
A |------------0-2-----------------------------2---3-3-3-3-3-----------|
E |--3-3-3-3-3---------------------------------------------------------|


G |------------------------------------------------------------------------------------------|
D |------------------------------------------------------------------------------------------|
A |---------------------------------------------------------------------------------10-------|
E |--3-3-3-3-3-3-3-3/10-10-10-10-10-10-10-10-10-10-10-10-10-10-10-10-12-12-0--12-12----12-10\|


G |------------------------------------------------------------------------------------------|
D |------------------------------------------------------------------------------------------| 
A |---------------------------------------------------------------------------------10-------|
E |--3-3-3-3-3-3-3-3/10-10-10-10-10-10-10-10-10-10-10-10-10-10-10-10-12-12-0--12-12----12-10\|


G |-------------------------------------------------------------------|
D |----------------0-0-0-0-0-0-0-0-0-0-0-0-0-0---0---------------5----|
A |------------0-2-----------------------------2---3-3-3-3-3-3-3------|
E |--3-3-3-3-3-----------------------------------------------------3--|


G |-------------------------------------------------------------0------|
D |----------------0-0-0-0-0-0-0-0-0-0-0-0-0-0---0-----------0h2--2-0--|
A |------------0-2-----------------------------2---3-3-3-3-3-----------|
E |--3-3-3-3-3---------------------------------------------------------|


G |------------------------------------------------------------------------------------------------|
D |------------------------------------------------------------------------------------------------|
A |---------------------------------------------------------------------------------------10-------|
E |--3-3-3-3-3-3-3-3/10-10-10-10-10-10-10-10-10-10-10-10-10-10-10-10-12-12-0--12-12-10h12----12-10-|


G |------------------------------------------------------------------------------------------------|
D |------------------------------------------------------------------------------------------------|
A |---------------------------------------------------------------------------------------10-------|
E |--3-3-3-3-3-3-3-3/10-10-10-10-10-10-10-10-10-10-10-10-10-10-10-10-12-12-0--12-12-10h12----12-10-|

G |------------------------------------------------------------------------------------------|
D |------------------------------------------------------------------------------------------|
A |---------------------------------------------------------------------------------10-------|
E |--3-3-3-3-3-3-3-3/10-10-10-10-10-10-10-10-10-10-10-10-10-10-10-10-12-12-0--12-12----12-10\|


G |------------------------------------------------------------------------------------------| 
D |------------------------------------------------------------------------------------------|
A |---------------------------------------------------------------------------------10-------|
E |--3-3-3-3-3-3-3-3/10-10-10-10-10-10-10-10-10-10-10-10-10-10-10-10-12-12-0--12-12----12-10\|


G |------------------------------------------------------------------------------------------|
D |------------------------------------------------------------------------------------------|
A |---------------------------------------------------------------------------------10-------|
E |--3-3-3-3-3-3-3-3/10-10-10-10-10-10-10-10-10-10-10-10-10-10-10-10-12-12-0--12-12----12-10\|


G |-----------------------------------------------------------------------------------------|
D |-----------------------------------------------------------------------------------------|
A |-----------------------------------------------------------------------------------------|
E |--3-3-3-3-3-3-3-3/10-10-10-10-10-10-10-10-10-10-10-10-10-10-10-10-0-0-0-0-0-0-0-0-0-0-0-0|


[Bridge]

G |-----------------------------------------------------------------------------------------------|
D |-----------------------------------------------------------------------------------------------|
A |-----------------------------------------------------------------------------------------------|
E |--3-3-3-3-3-3-3-3-3-3-3-3-3-3-3-0-2-2-2-2-2-2-2-2-2-2-2-2-2-0-1-1-1-1-1-1-1-1-1-1-1-1-1-1-1-1--|


G |------------------------------------------------------------------------------|
D |--------------------------2-2-2-2-1-1-1-1-1-1-1-1-1-1-1-1-1-1-1-1-1-1-1-1-1-1-| 
A |------------------------------------------------------------------------------| 
E |--0-0-0-0-0-0-0-0-0-0-0-0-----------------------------------------------------|


G |-----------------------------------------------------------------------------------------------|
D |-----------------------------------------------------------------------------------------------|
A |-----------------------------------------------------------------------------------------------|
E |--3-3-3-3-3-3-3-3-3-3-3-3-3-3-3-0-2-2-2-2-2-2-2-2-2-2-2-2-2-0-1-1-1-1-1-1-1-1-1-1-1-1-1-1-1-1--|


G |------------------------------------------------------------------------------|
D |--------------------------2-2-2-2-1-1-1-1-1-1-1-1-1-1-1-1-1-1-1-1-1-1-1-1-1-1-| 
A |------------------------------------------------------------------------------| 
E |--0-0-0-0-0-0-0-0-0-0-0-0-----------------------------------------------------|


G |-----------------------------------------------------------------------------------------------|
D |-----------------------------------------------------------------------------------------------|
A |-----------------------------------------------------------------------------------------------|
E |--3-3-3-3-3-3-3-3-3-3-3-3-3-3-3-0-2-2-2-2-2-2-2-2-2-2-2-2-2-0-1-1-1-1-1-1-1-1-1-1-1-1-1-1-1-1--|


G |------------------------------------------------------------------------------|
D |--------------------------2-2-2-2-1-1-1-1-1-1-1-1-1-1-1-1-1-1-1-1-1-1-1-1-1-1-| 
A |------------------------------------------------------------------------------| 
E |--0-0-0-0-0-0-0-0-0-0-0-0-----------------------------------------------------|


G |-----------------------------------------------------------------------------------------------|
D |-----------------------------------------------------------------------------------------------|
A |-----------------------------------------------------------------------------------------------|
E |--3-3-3-3-3-3-3-3-3-3-3-3-3-3-3-0-2-2-2-2-2-2-2-2-2-2-2-2-2-0-1-1-1-1-1-1-1-1-1-1-1-1-1-1-1-1--|


G |------------------------------------------------------------------------------|
D |--------------------------2-2-2-2-1-1-1-1-1-1-1-1-1-1-1-1-1-1-1-1-1-1-1-1-1-1-| 
A |------------------------------------------------------------------------------| 
E |--0-0-0-0-0-0-0-0-0-0-0-0-----------------------------------------------------|


[Outro]

  "...there is room for all in heaaaaven" 1 2 3 4 1 2 3 4 1 2 3 4 1 2 3 4 
G |-----------------------------------------------------------------------|
D |-----------------------------------------------------------------------|
A |-----------------------------------------------------------------------|
E |---------------------------------------3-3-3-3-5-5-5-5-5-5-5-5/7-7-7-7-|


G |--------------------------------------------------|
D |--------------------------------------------------|
A |------------------5-5-5-5-5-5-5-5/7-7-7-7-7-7-7---|
E |--3---3---3---3-----------------------------------|


G |--------------------------------------------------------------------|
D |---------0----------------------------------------------------------|
A |-----0-2--------2--/5-5-5-7-0----1--/5-5-5-7-0----1/3--3-3-2-2-0-0--|
E |-3-3-------3--------------------------------------------------------|


G |--------------------------------------------------------------------|
D |--------------------------------------------------------------------|
A |-----0-2-0------2--/5-5-5-7-0----1--/5-5-5-7-0----1/3--3-3-2-2-0-0--|
E |-3-3----------------------------------------------------------------|


G |--------------------------------------------------------------------|
D |--------------------------------------------------------------------|
A |-----0-2-0------2--/5-5-5-7-0----1--/5-5-5-7-0----1/3--3-3-2-2-0-0--|
E |-3-3----------------------------------------------------------------|


G |--------------------------------------------------------------------|
D |--------------------------------------------------------------------|
A |-----0-2-0------2--/5-5-5-7-0----1--/5-5-5-7-0----1/3--3-3-2-2-0-0--|
E |-3-3----------------------------------------------------------------|


G |--------------------------------------------------------------------|
D |--------------------------------------------------------------------|
A |-----0-2-0------2--/5-5-5-7-0----1--/5-5-5-7-0----1/3--3-3-2-2-0-0--|
E |-3-3----------------------------------------------------------------|


****************

h = hammer on
/ = slide up
\ = slide down

******************  
Но если и музыка нас оставит, что будет тогда с нашим миром? (Гоголь)
Мы стремимся к созданию контента, соответствующего всем нормам законодательства и уважающего интеллектуальную собственность. Мы также придаем большое значение тому, чтобы не задеть никого и не оскорбить чьи-либо чувства. Если у вас есть вопросы или претензии по размещенному материалу, пожалуйста, сообщите нам об этом.
Шрифт
-
0
+
Прокрутка
-
0
+
Стоп
Наверх