Аккорды Car Seat Headrest - Nobody Dies

Добавлено: @romashka
Дата добавления: 17 Февраля 2024г.
Рейтинг:
0.0
Просмотров: 147
[Verse]
e|---------------------------0-----0---------2-----2----|
B|---------------------------1-----1---------3-----3----|
G|-------------------------2-----2-----2---2-----2-----2| (x4)
D|---------------------------------------0-----0-----0--|
A|10---9---7--5---3---2--0- ---0-----0------------------|
E|------------------------------------------------------|

[Pre-Chorus]
e|----0-------2-------3-------2-------0-------2-------3-------2--|
B|----1-------3-------0-------3-------1-------3-------0-------0--|
G|--2---2---2---2---0---0---4---4---2---2---2---2---0---0-----2--|
D|--------0-------------------------------0-----------------1---1|
A|0-----------------------2-------0-----------------------2------|
E|----------------3-------------------------------3--------------|

e|----0-------2---------0-0--0-0-0-3-3-3-2-2-2-0-0-0-2-2-2-0-0-0-0|
B|----1-------3---------0-0--0-0-0-3-3-3-3-3-3-3-3-3-3-3-3-3-3-3-3|
G|--2---2---4---4-------0-0--0-0-0-2-2-2-2-2-2-2-2-2-2-2-2-2-2-2-2|
D|--------2-------------2-2--2-2-2-0-0-0-0-0-0-0-0-0-0-0-0-0-0-0-0|
A|0---------------------2-2--2-2-2--------------------------------|
E|----------------0-----0-0--0-0-0--------------------------------|

[Verse]
G    Gmaj7 G6    Em7  C    Bm   Am                  D
Kids don't don't need re - li - gion, they got each other
G      Gmaj7   G6      Em7       C    Bm   Am      Am7   Am   D
  They haven't started drifting apart yet, falling apart yet
G    Gmaj7 G6   Em7  C    Bm   Am           D
Kids don't know when they will come, to the party
G Gmaj7  G6 Em7        C   Bm  Am                    D
  We can be late, it's not too late, we haven't even started yet

[Pre-Chorus]
Am       D             G             Bm
   And tonight they'll find our beds empty
Am            D          G            B7
   Neighbor's graveyards whistle down 10th Street
Am             Bm           Em                D
   We'll shove sleep to the other side of our lives

When we're morning or old age

[Chorus]
Am             F
   We won't go down with the sun, we'll
C                    Dm7                        D7
  Rise again from whatever we've been dreaming, we'll
                    F                          C                    D
Find each other and break all the clocks cause I couldn't deal with leaving

[Interlude]
G    Gmaj7  G6 Em7  C    Bm Am   Am7  Am  D
No - bo  -  dy no - bo - dy no - bo - dy  nobody  (x2)

[Pre-Chorus]
Am       D             G             Bm
   And tonight they'll find our beds empty
Am            D          G            B7
   Neighbor's graveyards whistle down 10th Street
Am             Bm           Em                D
   We'll shove sleep to the other side of our lives

When we're morning or old age

[Chorus]
Am             F
   We won't go down with the sun, we'll
C                    Dm7                        D7
  Rise again from whatever we've been dreaming, we'll
                    F                          C                    D
Find each other and break all the clocks cause I couldn't deal with leaving

[Bridge]
Am
   Don't tell me when I've had enough
G                         D
   Don't tell me when the sun's coming up
        Am                   G       D
Because I couldn't deal with that

Am
   Don't tell me when I've had enough
G                         D
   Don't tell me when the sun's coming up
        Am                   G       D
Because I couldn't deal with that
        Am                   G       D
Because I couldn't deal with that
        Am                   G       D
Because I couldn't deal with that		
Музыка глушит печаль (Шекспир)
Мы стремимся к созданию контента, соответствующего всем нормам законодательства и уважающего интеллектуальную собственность. Мы также придаем большое значение тому, чтобы не задеть никого и не оскорбить чьи-либо чувства. Если у вас есть вопросы или претензии по размещенному материалу, пожалуйста, сообщите нам об этом на указанный адрес электронной почты: [email protected].
Шрифт
-
0
+
Прокрутка
-
0
+
Стоп
Наверх