Аккорды Car Seat Headrest - Fill In The Blank

Добавлено: @romashka
Дата добавления: 17 Февраля 2024г.
Рейтинг:
0.0
Просмотров: 59
Main riff
e|-0-0-0-0-0-0-0-0-0-0-0-0-0-0-0-0-0-0-0-0-0-0-0-0-0-0-0-0-0-0-0-0-|
B|-5-5-5-5-5-5-5-5-5-5-2-2-7-7-5-5-3-3-3-3-3-3-3-3-3-3-3-3-3-3-3-3-|
G|-----------------------------------------------------------------|
D|-----------------------------------------------------------------|
A|-----------------------------------------------------------------|
E|-----------------------------------------------------------------|

variation
e|-0-0-0-0-0-0-0-0-0-0-0-0-0-0-0-0-0-0-0-0-0-0-0-0-0-0-0-0-0-0-0-0-|
B|-5-5-5-5-5-5-5-5-5-5-2-2-7-7-5-5-3-3-3-3-3-3-3-3-3-3-3-3-3-3-2-0-|
G|-----------------------------------------------------------------|
D|-----------------------------------------------------------------|
A|-----------------------------------------------------------------|
E|-----------------------------------------------------------------|

E              D
I'm so sick of fill in the blank
E                           D
Accomplish more, accomplish nothing
E                        D
If I were split in two I would just take my fist
E                              D
So I could beat up the rest of me

            A
You have no right to be depressed
                  D
You haven't tried hard enough to like it
        A
Haven't seen enough of this world yet
       D
But it hurts, it hurts, it hurts
               A
Well stop your whining, try again
       D
No one wants to cause you pain
             A
They're just trying to let some air in
        D                     C#m
But you hold your breath, you hold your breath, you hold it
E                 F#m
Hold my breath, I hold my breath, I hold it

E                          D
I've known for a long time I'm not getting what I want out of people
E                      D
It took me a long time to figure out I don't know what I want
E                                                          D
So you'll ask why and there will be no answer, then you'll ask for how long and there will be no answer
E                                                              D
Then you'll ask what can I do and there will be no answer, and eventually you will shut up

            A
You have no right to be depressed
                  D
You haven't tried hard enough to like it
        A
Haven't seen enough of this world yet
       D
But it hurts, it hurts, it hurts
               A
Well stop your whining, try again
       D
No one wants to cause you pain
             A
They're just trying to let some air in
        D                     C#m
But you hold your breath, you hold your breath, you hold it
E                 F#m
Hold my breath, I hold my breath, I hold it

      Bm             C#m          D              A
I get signs from the cops, saying stay the fuck down
      Bm             C#m            D              A
I get signs from the audience, saying stay the fuck down
      Bm         D
I get signs from god, saying stay the fuck down

           A
I've got a right to be depressed
              D
I've given every inch I had to fight it
     A
I've seen too much of this world, yes
       D
And it hurts, it hurts, it hurts
           A
And I will never see the light
               D
That I've seen shining in your eyes
         A
You just want to see me naked
        D                 C#m
So I'll hold my breath, I hold my breath, I hold it
E                 F#m
Hold my breath, I hold my breath, I hold my breath, I hold my breath

End on A		
Музыка не только фактор облагораживающий, воспитательный. Музыка – целитель здоровья (Бехтерев)
Мы стремимся к созданию контента, соответствующего всем нормам законодательства и уважающего интеллектуальную собственность. Мы также придаем большое значение тому, чтобы не задеть никого и не оскорбить чьи-либо чувства. Если у вас есть вопросы или претензии по размещенному материалу, пожалуйста, сообщите нам об этом на указанный адрес электронной почты: [email protected].
Шрифт
-
0
+
Прокрутка
-
0
+
Стоп
Наверх